Your One-Stop Source For
Music Lyrics
Bass and Guitar Tabs
and More...
Music Lyrics Bass and Guitar Tabs

 

The Tabs Are Below

Learn To Read Tab
Chords Handbook
Corrections & Additions
Get Official Tab
RHCP tabs @ 911Tabs

Red Hot Chili Peppers - Hump De Bump

-------------------------------------------------------------------------------

one of the new funky songs from stadium arcadium - comments are welcome

 

Standard Tuning

 

Intro

e|-------------------------------------------------------------------------------|

B|---6-- 6-- 6--6--6---6---------------------------------------------------------|

G|---5-- 5---5--5--5---5---------------------------------------------------------|

D|---4-- 4---4--4--4---4---------------------------------------------------------|

A|---5-- 5---5--5--5---5---------------------------------------------------------|

E|-------------------------------------------------------------------------------|

 

Verse

e|-----------------------------------------------------------------------------|

B|-----------------------------------------------------------------------------|

G|----7-5--5-x--7-5-5-x-5-7----------------------------------------------------|

D|-----------------------------------------------------------------------------|

A|-----------------------------------------------------------------------------|

E|-----------------------------------------------------------------------------|

 

Verse Fill

 

e|----------------|

B|-----6h8p6------|

G|----------------|

 

 

Pre-Chorus (Hump De Bump part) - with muting in between notes

e|-----x--x--- x--x---x-------------- x-----------------------------------------|

B|-----7--6--- 7--6---6h7----(x7)-----7-----7--7-7-7-7-7-7-7-7------------------|

G|-----5- 5--- 5--5---5-------------- 5-----7--7-7-7-7-7-7-7-7------------------|

D|-----x- x--- x--x---x-------------- x-----7--7-7-7-7-7-7-7-7------------------|

A|---------------------------------------- 5--5-5-5-5-5-5-5-5------------------|

E|------------------------------------------------------------------------------|

 

Chorus (second time don't play after the *)

 

D7#9 Bb7 A7 Dm/F Bb7 C

e|----------1--1---------------------------------------------------------------|

B|--6--6----3--3---5--5---6---6------------------------------------------------|

G|- 5--5----1--1---6--6---7---7------------------------------- 5---------------| (x2)

D|- 4--4----3--3---5--5---6---6-----------3--------------5h7--5----------------|

A|- 5--5----1--1---7--7---8---8----1--3h5---5-----3*-5h7-----------------------|

E|-----------------5--5------- ------------------------------------------------|

 

 

Bridge/Percussion Solo - strum Dm (x57765) and crescendo (soft to loud)

 

End on

e|--------|

B|----6---|

D|--- 5---|

G|------- |

A|------- |

E|--------|

 

Intro

Verse

Pre-Chorus

Chorus

Verse

Pre Chorus

Chorus

Bridge/Percussion Solo

Pre-Chorus

Chorus

 

 

| / slide up

| slide down

| h hammer-on

| p pull-off

| ~ vibrato

| + harmonic

| x Mute note

 

 

Return to my Red Hot Chili Peppers tabs page

The Tablature is Copyright its respective owners.

Sign Up For My Newsletter
Subscribe | Unsubscribe

Site Map | Disclaimer | Privacy Policy | Media Kit | Submissions/Corrections

Website © 2000-2014 mattsmusicpage.com. All rights reserved.

Legal & DMCA: Matt's Music Page has been providing lyrics and tabs in a legal way, paying royalties each year to a few organizations. Then, all lyrics and tabs were removed from the site. Now, there's a new owner to the site, which purchased it August 26, 2014, and he is in negotiation to obtain licensing from BMI at the moment. If you have a specific DMCA request -- please do not hesitate to contact me via the contact button on top. I will do my very best to keep this site fully legal.

Get our toolbar!

 

Hard Rock Pin Las Vegas 4th of july red white and blue guitar
$5.0
Hard Rock Pin Las Vegas 4th of july red white and blue guitar picture


Hard Rock Pin Hollywood Fl Bell Girl with dice luggage and guitar
$5.0
Hard Rock Pin Hollywood Fl Bell Girl with dice luggage and guitar picture


Hard Rock Pin Las Vegas King of Clubs Guitar rare only 3 lines of info on back
$5.0
Hard Rock Pin Las Vegas King of Clubs Guitar rare only 3 lines of info on back picture


Hard Rock Pin Edmonton guitar pin
$5.0
Hard Rock Pin Edmonton guitar pin picture


Lladro Guitar Boy #4614 - Beautiful Piece of Lladro
$109.0
Lladro Guitar Boy #4614 - Beautiful Piece of Lladro picture