Your One-Stop Source For
Music Lyrics
Bass and Guitar Tabs
and More...
Music Lyrics Bass and Guitar Tabs

 

The Tabs Are Below

Learn To Read Tab
Chords Handbook
Corrections & Additions
Get Official Tab
RHCP tabs @ 911Tabs

Hard to Concentrate - Red Hot Chili Peppers

-------------------------------------------------------------------------------

Tabbed by: Mister.Y

Email: stan.antheunis@gmail.com

 

Tuning: Standard

 

Hi everyone, this is the second song of the second disc of RHCP's new album 'Stadium

It only misses the solo in the last chorus, im working on that.

 

This is my first real guitar tab, so I know nothing of guitar-effects, im sorry, but

have to figure that out yourselfs. Enjoy!

 

Verse 1:

[C] [Bm] [C] [Bm]

 

e|---3-----------2-----------3-----------2-------|

B|---6-----------3-----------6-----------3-------|

G|---6-----------4-----------6-----------4-------| x2

D|---6-----------4-----------6-----------4-------|

A|---3-----------2-----------3-----------2-------|

E|-----------------------------------------------|

 

 

Chorus 1:

[C] [G] [D] [Em]

e|----3----------3-----------5-----------7-------|

B|----6----------3-----------7-----------8-------|

G|----6----------4-----------7-----------9-------| x3

D|----6----------5-----------7-----------9-------|

A|----3----------5-----------5-----------7-------|

E|---------------3-------------------------------|

 

[C] [G] [D] [Bm]

e|----3----------3-----------5---------------------2-------|

B|----6----------3-----------7---------------------3-------|

G|----6----------4-----------7---------------------4-------|

D|----6----------5-----------7---------------------4-------|

A|----3----------5-----------5---------------------2-------|

E|---------------3-----------------------------------------|

 

Verse 2:

Guitar 1:

[C] [Bm] [C] [Bm]

 

e|---3-----------2-----------3-----------2-------|

B|---6-----------3-----------6-----------3-------|

G|---6-----------4-----------6-----------4-------|

D|---6-----------4-----------6-----------4-------|

A|---3-----------2-----------3-----------2-------|

E|-----------------------------------------------|

 

 

Guitar 2:

e|----15~~~~~~~~~~~14~~~~~~~~~~~15~~~~~~~~~~~14~~~~~~~~~~~|

B|--------------------------------------------------------|

G|--------------------------------------------------------|

D|--------------------------------------------------------|

A|--------------------------------------------------------|

E|--------------------------------------------------------|

 

 

Chorus 2:

 

[C] [G] [D] [Em]

e|----3----------3-----------5-----------7-------|

B|----6----------3-----------7-----------8-------|

G|----6----------4-----------7-----------9-------| x3

D|----6----------5-----------7-----------9-------|

A|----3----------5-----------5-----------7-------|

E|---------------3-------------------------------|

 

[C] [G] [D] [Bm]

e|----3----------3-----------5---------------------2-------|

B|----6----------3-----------7---------------------3-------|

G|----6----------4-----------7---------------------4-------|

D|----6----------5-----------7---------------------4-------|

A|----3----------5-----------5---------------------2-------|

E|---------------3-----------------------------------------|

 

 

Solo:

-----

e|----------------------------------------------------------| |

B|------8-8-----10-10--8------------8-8---8--10-10--8-------| |

G|---9-------9------------9------9-------9------------9-----| |

D|----------------------------------------------------------| |

A|----------------------------------------------------------| |

E|----------------------------------------------------------| |

| 2x

e|----------------------------------------------------------| |

B|---------7----7-8--7---------------7----7-8--7------------| |

G|------7------7-------7----------7------7-------7----------| |

D|---9-------------------------9----------------------------| |

A|----------------------------------------------------------| |

E|----------------------------------------------------------| |

-----

 

Chorus 3:

 

e|-----------3--3----------3--3----------2--2------3--3---------|

B|--------------------------------------------------------------|

G|---7--75-------5---54-------4---42-------2/4-------4----------| x3

D|--------------------------------------------------------------|

A|--------------------------------------------------------------|

E|--------------------------------------------------------------|

 

[D]

e|-----------3--3----------3--3-----5--5---5-5--5-5--5-----8--8---8--8---8--------|

B|----------------------------------7--7---7-7--7-7--7-----10-10--10-10--10-------|

G|---7--75-------5---54---------4---7--7---7-7--7-7--7-----10-10--10-10--10---------|

D|----------------------------------7--7---7-7--7-7--7-----10-10--10-10--10-------|

A|----------------------------------5--5---5-5--5-5--5-----8--8---8--8---8--------|

E|--------------------------------------------------------------------------------|

 

Bridge:

[C] [G] [D]

e|---3----------------------3-----------5------------------|

B|---6----------------------3-----------7------------------|

G|---6----------------------4-----------7------------------| x2

D|---6----------------------5-----------7------------------|

A|---3----------------------5-----------5------------------|

E|--------------------------3------------------------------|

 

[C] [G] [D]

e|------------3----------------------3-------------5-------|

B|---------5----------------------3-------------7----------|

G|------5----------------------4-------------7-------------|

D|---5----------------------5-------------7----------------|

A|---------------------------------------------------------|

E|---------------------------------------------------------|

 

[C] [G] [D]

e|------------3----------------------3----5----5---5-5--5-5--5-----5-5--5-5--5-----5-5--5-5--5----|

B|---------5----------------------3-------7----7---7-7--7-7--7-----7-7--7-7--7-----7-7--7-7--7----|

G|------5----------------------4----------7----7---7-7--7-7--7-----7-7--7-7--7-----7-7--7-7--7----|

D|---5----------------------5-------------7----7---7-7--7-7--7-----7-7--7-7--7-----7-7--7-7--7----|

A|----------------------------------------5----5---5-5--5-5--5-----5-5--5-5--5-----5-5--5-5--5----|

E|------------------------------------------------------------------------------------------------|

 

Verse 3:

-----

e|----------------------------------------------------------| |

B|------8-8-----10-10--8------------8-8---8--10-10--8-------| |

G|---9-------9------------9------9-------9------------9-----| |

D|----------------------------------------------------------| |

A|----------------------------------------------------------| |

E|----------------------------------------------------------| |

| 2x

e|----------------------------------------------------------| |

B|---------7----7-8--7---------------7----7-8--7------------| |

G|------7------7-------7----------7------7-------7----------| |

D|---9-------------------------9----------------------------| |

A|----------------------------------------------------------| |

E|----------------------------------------------------------| |

-----

 

Chorus 4+5:

 

e|-----------3--3----------3--3----------2--2------3--3---------|

B|--------------------------------------------------------------|

G|---7--75-------5---54-------4---42-------2/4-------4----------| x3

D|--------------------------------------------------------------|

A|--------------------------------------------------------------|

E|--------------------------------------------------------------|

 

[D]

e|-----------3--3----------3--3------5--5---5-5--5-5--5-----8--8---8--8---8--------|

B|-----------------------------------7--7---7-7--7-7--7-----10-10--10-10--10-------|

G|---7--7--5------5---5--4-------4---7--7---7-7--7-7--7-----10-10--10-10--10-------|

D|-----------------------------------7--7---7-7--7-7--7-----10-10--10-10--10-------|

A|-----------------------------------5--5---5-5--5-5--5-----8--8---8--8---8--------|

E|---------------------------------------------------------------------------------|

 

e|---7---|

B|---7---|

G|---7---| End

D|---9---|

A|---9---|

E|---7---|

 

| / slide up

| slide down

| h hammer-on

| p pull-off

| ~ vibrato

| + harmonic

| x Mute note

 

 

Return to my Red Hot Chili Peppers tabs page

The Tablature is Copyright its respective owners.

Sign Up For My Newsletter
Subscribe | Unsubscribe

Site Map | Disclaimer | Privacy Policy | Media Kit | Submissions/Corrections

Website © 2000-2014 mattsmusicpage.com. All rights reserved.

Legal & DMCA: Matt's Music Page has been providing lyrics and tabs in a legal way, paying royalties each year to a few organizations. Then, all lyrics and tabs were removed from the site. Now, there's a new owner to the site, which purchased it August 26, 2014, and he is in negotiation to obtain licensing from BMI at the moment. If you have a specific DMCA request -- please do not hesitate to contact me via the contact button on top. I will do my very best to keep this site fully legal.

Get our toolbar!