Your One-Stop Source For
Music Lyrics
Bass and Guitar Tabs
and More...
Music Lyrics Bass and Guitar Tabs

 

The Red Hot Chili Peppers Bass Tabs Are Below

Learn To Read Tab
Chords Handbook
Corrections & Additions
Get Official Tab
RHCP tabs @ 911Tabs

Song: Readymade

Artist: Red Hot Chili Peppers

Album: Stadium Arcadium

 

Tabbed By: Marcos Prieto (marcrow_ps@yahoo.es)

 

Notation legend:

 

x -> mute.

\ -> slide up. \ It can be after or before the note, like 1h3,

/ -> slide down. | but if there's no enought space it can be

h -> hammer on. | over or down, like G|-13-...

p -> pull off. / D|--h-...

~ -> let ring.

r -> rest.

S -> slap.

P -> pop.

+ + -> the rhythm of the song, generally 4x4. If there are 2 digits notes

or there's no enough space, I lengthen it,

from (+ + ...) to (+ · + · ...)

|·------·| -> repeat this a number of times, for example |·3-3-3-3·| x4

repeats 3-3-3-3 four times.

 

 

Intro/Verse:

___V. End 1____

Em \

+ + + + + + + + + + + + + + + +

G||----------------|----------------|----------------|----------------||

D|·--------5-------|--------5-------|--------5-------|--------------5-·|

A|·5-7-7-5---7-5-7-|5-7-7-5---7-5-7-|5-7-7-5---7-5-7-|--------5-6-7---·|

E||----------------|----------------|----------------|4-5-6-7---------|| x10

 

____V. End 2___ ____V. End 3___ ____V. End 4___ ____V. End 5___

\ \ \ \

+ + + + + + + + + + + + + + + +

G|----------------| |----------------| |----------------| |----------------|

D|----------------| |----------------| |--------------5-| |----------------|

A|--------5-6-7\--| |--------5-6-7---| |--------5-6-7---| |--------5-6-7---|

E|4-5-6-7---------| |4-5-6-7-------0-| |4-5-6-7---------| |4-5-6-7---------|

 

Replace V. End 1 with V. End 2 last time after the chorus.

 

Chorus:

 

G A

+ + + + + + + + + + + + + + + +

G|----------------|----------------|----------------|----------------|

D|----------------|----------------|----------------|----------------|

A|----------------|------------5-7-|----------------|------------5-7-|

E|3-------3---3-3-|--3-3-----57----|5-------5---5-5-|--5-5-----7-----|

/

 

Em

+ + + + + + + + + + + + + + + +

G|----------------|----------------|----------------|----------------|

D|--------------5-|----------------|--------------5-|----------------|

A|7---7---5-7-----|----5-7---------|7---7---5-7-----|----5-7---------|

E|------7---------|--7-------7-5-3-|------7---------|--7-------7-5-3-|

 

G A

+ + + + + + + + + + + + + + + +

G|----------------|----------------|----------------|----------------|

D|----------------|----------------|----------------|----------------|

A|----------------|--------5-7-5---|----------------|------------5-7-|

E|3-------3---3-3-|--3-57--------3-|5-------5----5-5|--5-5-----7-----|

/

 

Em

+ + + + + + + + + + + + + + + +

G|----------------|----------------|----------------|----------7-----|

D|--------------5-|----------------|--------------5-|--------79--97--|

A|7---7---5-7-----|----5-7---------|7---7---5-7-----|----5-7--/----10|

E|------7---------|--7-------7-5-3-|------7---------|--7-------------|

 

Verse 2 (Replace V. End 1 with V. End 3 last time after the chorus)

 

Chorus 2:

 

G A

+ + + + + + + + + + + + + + + +

G|----------------|----------------|----------------|----------------|

D|----------------|----------------|----------------|----------------|

A|----------------|----------------|----------------|------------5-7-|

E|3-------3---3-3-|--3-3---3-3-3---|5-------5----5-5|--5-5-----7-----|

 

Em

+ + + + + + + + + + + + + + + +

G|----------------|----------------|----------------|----------------|

D|--------------5-|----------------|--------------5-|----------------|

A|7---7---5-7-----|----5-7---------|7---7---5-7-----|----5-7---------|

E|------7---------|--7-------7-5-3-|------7---------|--7-------7-5-3-|

 

G A

+ + + + + + + + + + + + + + + +

G|----------------|----------------|----------------|----------------|

D|----------------|------5-7-5-----|----------------|----------------|

A|----------------|--5-7-------7-5-|----------------|------------5-7-|

E|3-------3---3-5/|7---------------|5-------5----5-5|--5-5-----7-----|

 

Em

+ + + + + + + + + + + + + + + +

G|----------------|----------------|----------------|----------------|

D|--------------5-|----------------|----------------|----------------|

A|7---7---5-7-----|----5-7---------|7---7---5-7---7\|----------------|

E|------7---------|--7-------7-5-3-|------7---------|----------------|

 

Verse 3 (Replace V. End 1 with V. End 4 last time after the chorus)

 

Bridge:

 

+ + + + + + + +

G|----------------| ||----------------||

D|----------------| |·----------------·|

A|5-----x4-----2--| |·------REST------·|

E|----------------| ||----------------|| x3

 

+ + + + + + + +

G|----------------| ||----------------||

D|----------------| |·----------------·|

A|----------------| |·------REST------·|

E|5-----4------2--| ||----------------|| x3

 

+ + + + + + + +

G|----------------| ||----------------||

D|----------------| |·----------------·|

A|5-----4------2--| |·------REST------·|

E|----------------| ||----------------|| x3

 

+ + + + + + + +

G|----------------| ||----------------||

D|----------------| |·----------------·|

A|----------------| |·------REST------·|

E|5-----4------2--| ||----------------|| x3

 

Verse 4 (Replace V. End 1 with V. End 5 last time after the chorus)

 

Chorus 3:

 

G A

+ + + + + + + + + + + + + + + +

G|----------------|----------------|----------------|----------------|

D|----------------|--------------5-|----------------|----------------|

A|----------------|--------/-5-7---|----------------|------------5-7-|

E|3-------3---3-3-|--3-3--57-------|5-------5----5-5|--5-5-----7-----|

 

Em

+ + + + + + + + + + + + + + + +

G|----------------|----------------|----------------|----------------|

D|--------------5-|----------------|--------------5-|----------------|

A|7---7---5-7-----|----5-7---------|7---7---5-7-----|----5-7---------|

E|------7---------|--7-------7-5-3-|------7---------|--7-------7-5-3-|

 

G A

+ + + + + + + + + + + + + + + +

G|----------------|----------------|----------------|----------------|

D|----------------|--------5-------|----------------|----------------|

A|----------------|--/-5-7-----7-5-|----------------|------------5-7-|

E|3-------3---3-3-|-57-------------|5-------5----5-5|--5-5-----7-----|

 

Em

+ + + + + + + + + + + + + + + +

G|----------------|----------------|----------------|----------------|

D|--------------5-|----------------|----------------|----------------|

A|7---7---5-7-----|----5-7---------|7---7---5-7---7\|----------------|

E|------7---------|--7-------7-5-3-|------7---------|----------------|

 

 

__ _ __ __ _____ _____ _____

/ | / | / | / `\ / ___/ / __ / ( __/

/ |/ | / /|| / /) / // / / // \ \

/ /| /|| / /^|| / /|| //___ / / // ___) )

/ / | / || / / || / / || / / / ^^/ / /

^^^^^^^^^^^^^^^^^^^^^^^^^^^^^^^^^^^^^^^^^^^^^^^^^

Return to my Red Hot Chili Peppers Bass Tabs page

The Tablature is Copyright its respective owners.

Sign Up For My Newsletter
Subscribe | Unsubscribe

Site Map | Disclaimer | Privacy Policy | Media Kit | Submissions/Corrections

Website © 2000-2014 mattsmusicpage.com. All rights reserved.

Legal & DMCA: Matt's Music Page has been providing lyrics and tabs in a legal way, paying royalties each year to a few organizations. Then, all lyrics and tabs were removed from the site. Now, there's a new owner to the site, which purchased it August 26, 2014, and he is in negotiation to obtain licensing from BMI at the moment. If you have a specific DMCA request -- please do not hesitate to contact me via the contact button on top. I will do my very best to keep this site fully legal.

Get our toolbar!