Your One-Stop Source For
Music Lyrics
Bass and Guitar Tabs
and More...
Music Lyrics Bass and Guitar Tabs

 

The Tabs Are Below

Learn To Read Tab
Chords Handbook
Corrections & Additions
Get Official Tab
RHCP tabs @ 911Tabs

Red Hot Chili Peppers (Californication)

 

OTHERSIDE - tabbed by ???

 

 

intro

-----------------------------------------------------------------------------

-----------------------------------------------------------------------------

-----------------------------------------------------------------------------

--------------7--7--9--7-----------------------------------------------------

-----7--7--7--------------10--7--------5--5--5-------------------------------

-----------------------------------------------------------------------------

 

 

-----------------------------------------------------------------------------

-----------------------------------------------------------------------------

-----------------------------------------------------------------------------

--------------7--7--9--7-----------------------------------------------------

-----7--7--7--------------10--7--7--7--5--5--5-------------------------------

-----------------------------------------------------------------------------

How long, how long.......

 

 

-----------------------------------------------------------------------------

-----------------------------------------------------------------------------

-----------------------------------------------------------------------------

-------------7--7--9--7------------------------------------------------------

----7--7--7--------------10--7--7--7--5--5--5--------------------------------

-----------------------------------------------------------------------------

 

 

 

-----------------------------------------------------------------------------

-----------------------------------------------------------------------------

----------------------9--9--9------------------------------------------------

-------------7--7--7----------9---9--9---------------------------------------

----7--7--7------------------------------------------------------------------

-----------------------------------------------------------------------------

 

 

verse

(a) (b)

------------------------15----|-----3--------------5-------------------------

--13--------------12----------|-----3--------------5-------------------------

------------------------------|-----4--------------6-------------------------

------------------------------|-----5--------------7-------------------------

------------------------------|-----5--------------7-------------------------

------------------------------|-----3--------------5-------------------------

Verse form

(a) x3

(b) x1

(a) x3

(b) x3

heard your voice through a photograph........

 

 

chorus

-----------------------------------------------------------------------------

-----------------------------------------------------------------------------

-----------------------------------------------------------------------------

-------------7--7--9--7------------------------------------------------------

----7--7--7--------------10--7--7--7--5--5--5--------------------------------

-----------------------------------------------------------------------------

 

 

-----------------------------------------------------------------------------

-----------------------------------------------------------------------------

-----------------------------------------------------------------------------

-------------7--7--9--7------------------------------------------------------

----7--7--7--------------10--7--7--7--5--5--5--------------------------------

-----------------------------------------------------------------------------

 

 

 

-----------------------------------------------------------------------------

-----------------------------------------------------------------------------

---------------------9--9--9--9/12--12--12--12-------------------------------

-------------7--7--7---------------------------------------------------------

----7--7--7------------------------------------------------------------------

-----------------------------------------------------------------------------

how long how long............

 

verse

(a) (b)

------------------------15----|-----3--------------5-------------------------

--13--------------12----------|-----3--------------5-------------------------

------------------------------|-----4--------------6-------------------------

------------------------------|-----5--------------7-------------------------

------------------------------|-----5--------------7-------------------------

------------------------------|-----3--------------5-------------------------

Verse form

(a) x3

(b) x1

(a) x3

(b) x3

 

Pour my life into a paper cup.......

 

chorus

 

-----------------------------------------------------------------------------

-----------------------------------------------------------------------------

-----------------------------------------------------------------------------

-------------7--7--9--7------------------------------------------------------

----7--7--7--------------10--7--7--7--5--5--5--------------------------------

-----------------------------------------------------------------------------

 

 

 

-----------------------------------------------------------------------------

-----------------------------------------------------------------------------

-----------------------------------------------------------------------------

-------------7--7--9--7------------------------------------------------------

----7--7--7--------------10--7--7--7--5--5--5--------------------------------

-----------------------------------------------------------------------------

 

 

 

-----------------------------------------------------------------------------

-----------------------------------------------------------------------------

----------------------9--9--9------------------------------------------------

-------------7--7--7-----------9----9--9-------------------------------------

----7--7--7------------------------------------------------------------------

-----------------------------------------------------------------------------

 

 

Bridge

 

|-------------Harmonics--------------------|

-----12-----12-------12------------------------------------------------------

--------------------------------12---12-----12-------------------------------

-----------------------------------------------------------------------------

-----------------------------------------------------------------------------

-----------------------------------------------------------------------------

-----------------------------------------------------------------------------

 

 

Solo

------------------10/12--12-12-12---12h15--12-12-12h15-12-12h15-12--12h5-----

--10--10-10-10-10------------------------------------------------------------

-----------------------------------------------------------------------------

-----------------------------------------------------------------------------

-----------------------------------------------------------------------------

-----------------------------------------------------------------------------

 

Lead just continues to play notes from the solo, drops put, and

then comes back in with the solo.

 

 

Author/Artist: Red Hot Chili Peppers

Title: Other Side

Transcribed by: Chris Arnold

Email: webmaster@cagtp.com

 

*STANDARD TUNING*

Nice and easy.

 

Intro/Main Riff:

E-------------------------------------|

B-------------------------------------|

G-------------------------------------|

D-------------------------------------|

A-7-7-7-7/12-12-12-14-12-10-7-5-5-5-7-|

E-------------------------------------|

 

You also do this occasionally - you can hear it.

E------------------------------------------|

B------------------------------------------|

G------------------------------------------|

D------------------------------------------|

A-7-7-7-7/12-12-12-15-15-15-15-19-19-19-19-|

E------------------------------------------|

 

"Take it on the other side..":

E-----|

B-----|

G-----|

D-5-7-|

A-5-7-|

E-3-5-|

 

During verses you hear this:

E-----------------------------------------|

B-----------------------------------------|

G-----------------------------------------|

D-----------------------------------------|

A-----------------------------------------|

E-5-5-5-5-5-5-5-5/12-12-12-12-12-12-12-12-|

 

Solo Thing (you get the idea):

E------------------------------------------------------------------------|

B-12v-12v-12v-12v--10-10-10/17-17-17-20-17-17-17-17-20-17-17-20-17-17-20-|

G------------------------------------------------------------------------|

D------------------------------------------------------------------------|

A------------------------------------------------------------------------|

E------------------------------------------------------------------------|

 

 

 

Submitted by: Kevin Moran <Fleamoran@aol.com>

 

Red Hot Chili Peppers

Otherside from My VH! Music Awards

 

E:7------7-------7-------7-------7----------------------------------------------

B:-10-10---10-10---10-10---10-10---10 10-------10-------10------8-8-8-8-8-8-8-8-

G:---------------------------------------10 10----10-10---10-10-----------------

D:------------------------------------------------------------------------------

A:------------------------------------------------------------------------------

E:------------------------------------------------------------------------------

Return to my Red Hot Chili Peppers tabs page

The Tablature is Copyright its respective owners.

Sign Up For My Newsletter
Subscribe | Unsubscribe

Site Map | Disclaimer | Privacy Policy | Media Kit | Submissions/Corrections

Website © 2000-2014 mattsmusicpage.com. All rights reserved.

Legal & DMCA: Matt's Music Page has been providing lyrics and tabs in a legal way, paying royalties each year to a few organizations. Then, all lyrics and tabs were removed from the site. Now, there's a new owner to the site, which purchased it August 26, 2014, and he is in negotiation to obtain licensing from BMI at the moment. If you have a specific DMCA request -- please do not hesitate to contact me via the contact button on top. I will do my very best to keep this site fully legal.

Get our toolbar!