Your One-Stop Source For
Music Lyrics
Bass and Guitar Tabs
and More...
Music Lyrics Bass and Guitar Tabs

 

The Tabs Are Below

Learn To Read Tab
Chords Handbook
Corrections & Additions
Get Official Tab
RHCP tabs @ 911Tabs

Band: Red Hot Chili Peppers

Song: On Mercury

Album: By The Way

 

Standard Tuning (EADGBe)

 

Verse

 

 

e.-----------------------------------------------------------------------------------

B.-----------------------------------------------------------------------------------

G.-----------------------------------------------------------------------------------

D.-----9-x--x-9----12---11---9----11--11----7--x-x-7---9--11--12--11--11-----

A.-----9-x--x-9----10---9----7----9----9----7--x-x-7---7---9--10--9---9-------

E.-----7-x--x-7-----------------------------5-x-x-5-----------------------------

 

 

Pre-Chorus

 

e.-----------------------------------------------------------------------

B.-----------------------------------------------------------------------

G.---------------------------------------9---------------------

D.---5x-x-5---5--7—8---7-7----4-x-x-4----9-(6x for that chord(

A.---5x-x-5---3--5—6---5-5----4-x-x-4----7---------------------

E.---3x-x-3-------------------2-x-x-2-------------------------

 

 

Chorus

 

 

e.--------------------------------------------

B.-------------------------------------------

G.-------------7-------------9-------------

D.-----9-------7------7------9--------------

A.-----9-------5------7------7-------------

E------7--- ----------5--------------------

 

Those are the correct cords for the chorus just put rhythm the rhythm to it by listening to the songs.

 

Verse (6x) C(4x) I hope u like this tab. I think the Pre chorus is right its hard to

PRE(2x) V(4x) hear cuz of the horns. Pleez make corrections if u think

C(4x) C(8x) differently. PEACE.~~~Matt

V(5x)

PRE(4x)

 

 

Return to my Red Hot Chili Peppers tabs page

The Tablature is Copyright its respective owners.

Sign Up For My Newsletter
Subscribe | Unsubscribe

Site Map | Disclaimer | Privacy Policy | Media Kit | Submissions/Corrections

Website © 2000-2014 mattsmusicpage.com. All rights reserved.

Legal & DMCA: Matt's Music Page has been providing lyrics and tabs in a legal way, paying royalties each year to a few organizations. Then, all lyrics and tabs were removed from the site. Now, there's a new owner to the site, which purchased it August 26, 2014, and he is in negotiation to obtain licensing from BMI at the moment. If you have a specific DMCA request -- please do not hesitate to contact me via the contact button on top. I will do my very best to keep this site fully legal.

Get our toolbar!

 

VINTAGE SORRENTO MUSIC JEWELRY BOX
$45.0
VINTAGE SORRENTO MUSIC JEWELRY BOX picture


VINTAGE LACQUERED MUSIC BOX JAPAN
$25.99
VINTAGE LACQUERED MUSIC BOX JAPAN picture


Vintage Kehlsteinhaus Bavaria Germany Colorscope Cow Bell View Master Music Box
$8.99
Vintage Kehlsteinhaus Bavaria Germany Colorscope Cow Bell View Master Music Box picture


VINTAGE SCHMIDT Signed Collectible Musical Turning Clown
$9.99
VINTAGE  SCHMIDT Signed Collectible Musical Turning Clown picture


Vintage - Linen - Postcard - Stage - Radio City Music Hall - New York City
$3.75
Vintage - Linen - Postcard - Stage - Radio City Music Hall - New York City   picture