Your One-Stop Source For
Music Lyrics
Bass and Guitar Tabs
and More...
Music Lyrics Bass and Guitar Tabs

 

The Red Hot Chili Peppers Bass Tabs Are Below

Learn To Read Tab
Chords Handbook
Corrections & Additions
Get Official Tab
RHCP tabs @ 911Tabs

#----------------------------------PLEASE NOTE---------------------------------#

#This file is the author's own work and represents their interpretation of the #

#song. You may only use this file for private study, scholarship, or research. #

#------------------------------------------------------------------------------##

 

This is my first tab in a long time, so bear with me. I made

this tab with the PowerTab Editor. I am leaving the note

durations above each staff to (possibly) make learning this

song a little easier. If you have and questions, you can

email me at scartissue044@gmail.com. The one part of the

song that I had a little bit of a hard time hearing was the

the Bridge, so it might be a little bit off. Enjoy.

 

 

 

 

Guitar/Drum Intro

 

|---------|

|--4-Bar--|

|--Rest---|

|---------|

 

 

Verse 1

H H H H H H H H

||------------|-------------|-----------|-------------|

||o------9----|-10----------|------9----|-10----------|

||o-7---------|-------10----|-7---------|-------10----|

||------------|-------------|-----------|-------------|

 

E. E. E H E. E. E H E. E. E H E. E. E H

|---------------|-----9-----------|---------------|-----9------------||

|--------7-9----|-10-----10-------|--------7-9----|-10-----10-------o||

|-7--10---------|-----------10----|-7--10---------|-----------10----o||

|---------------|-----------------|---------------|------------------||

 

 

Chorus

E. E S E E. E S E E. E S E E. E S E

||--------------------|-------------------|

||o-5--5-5-5-7--7-7-7-|-9--9-9-9-5--5-5-5-|

||o-------------------|-------------------|

||--------------------|-------------------|

 

 

E. E S E E. E S E E. E S E E. E S E

|-------------------|-------------------------||

|-5--5-5-5-7--7-7-7-|-9--9-9-9-10--10-10-10--o||

|-------------------|------------------------o||

|-------------------|-------------------------||

 

 

Pre-Verse Verse 2

W H Q Q H H H H H H H H

|----------|-------------|-----------|-------------|-----------|-------------|

|----------|-------------|------9----|-10----------|------9----|-10----------|

|----------|---------14\\|\7---------|-------10----|-7---------|-------10----|

|----------|-------------|-----------|-------------|-----------|-------------|

 

 

H H H Q E E H H H H

|-----------|----------------|-----------|-------------|

|------9----|-10-------------|------9----|-10----------|

|-7---------|-------10--10-9-|-7---------|-------10----|

|-----------|----------------|-----------|-------------|

 

 

Chorus

E. E S E E. E S E E. E S E E. E S E

||--------------------|-------------------|

||o-5--5-5-5-7--7-7-7-|-9--9-9-9-5--5-5-5-|

||o-------------------|-------------------|

||--------------------|-------------------|

 

 

E. E S E E. E S E E. E S E E. E S E

|-------------------|-------------------------||

|-5--5-5-5-7--7-7-7-|-9--9-9-9-10--10-10-10--o||

|-------------------|------------------------o||

|-------------------|-------------------------||

 

 

Bridge

E E E E E E E E E E E E E E E E

|-------4-7-4-----|--------------------|

|---4-7-------7-4-|------7-9-7---------|

|-5---------------|-7-10-------10-7----|

|-----------------|-----------------10-|

 

 

E E E E E E E E E E S S E E E E E

|--------------------|--------------------|

|--------7-10-7------|-------------2-3-5--|

|---7-10--------10-7-|-----5h7---3--------|

|-8------------------|-5-8-----5----------|

 

 

Pre-Verse Verse 3

H H H H H H H H

||------------|--------------||-||------------|--------------||

||o------9----|-10----------o||-||o------9----|-10----------o||

||o-7---------|-------10----o||-||o-7---------|-------10----o||

||------------|--------------||-||------------|--------------||

 

 

E. E. E H E. E. E E. E. E E. E. E E. E. E E. E. E Q E E

|---------------|-----9---------------|------------------|-----9--12-----------|

|--------7-9----|-10-----10-----------|--------7-9--7--9-|-10------------------|

|-7--10---------|-----------10--9--10-|-7--10------------|-----------10--10-10-|

|---------------|---------------------|------------------|---------------------|

 

 

Chorus

E. E S E E. E S E E. E S E E. E S E

||--------------------|-------------------|

||o-5--5-5-5-7--7-7-7-|-9--9-9-9-5--5-5-5-|

||o-------------------|-------------------|

||--------------------|-------------------|

 

 

E. E S E E. E S E E. E S E E. E S E

|-------------------|-------------------------||

|-5--5-5-5-7--7-7-7-|-9--9-9-9-10--10-10-10--o||

|-------------------|------------------------o||

|-------------------|-------------------------||

 

 

Outro

E. E S E E. E S E E. E S E E. E S E

|-------------------|-------------------|

|-5--5-5-5-7--7-7-7-|-9--9-9-9-5--5-5-5-|

|-------------------|-------------------|

|-------------------|-------------------|

 

 

E. E S E E. E S E E. E S E S S S S S S S S

|-------------------|----------------12-12-------12-12-|

|-5--5-5-5-7--7-7-7-|-9--9-9-9-10-10-------10-10-------|

|-------------------|----------------------------------|

|-------------------|----------------------------------|

 

 

E. E S E E. E S E E. E S E E. E S E

|-------------------|-------------------|

|-5--5-5-5-7--7-7-7-|-9--9-9-9-5--5-5-5-|

|-------------------|-------------------|

|-------------------|-------------------|

 

 

E. E S E E. E S E E. E S E E E E E

|-------------------|----------------------|

|-5--5-5-5-7--7-7-7-|-9--9-9-9-10-10-10-10-|

|-------------------|----------------------|

|-------------------|----------------------|

 

 

W

|----------||

|----------||

|-5--------||

|----------||

 

 

Duration Legend

---------------

W - whole

H - half

Q - quarter

E - 8th

S - 16th

. - note dotted

 

Duration letters will always appear directly above the note/fret number it represents the

duration for. Duration letters with no fret number below them represent rests.

 

Tablature Legend

----------------

h - hammer-on

p - pull-off

\ - slide (down)

 

Misc Legend

-----------

| - bar

|| - double bar

||o - repeat start

o|| - repeat end

Return to my Red Hot Chili Peppers Bass Tabs page

The Tablature is Copyright its respective owners.

Sign Up For My Newsletter
Subscribe | Unsubscribe

Site Map | Disclaimer | Privacy Policy | Media Kit | Submissions/Corrections

Website © 2000-2014 mattsmusicpage.com. All rights reserved.

Legal & DMCA: Matt's Music Page has been providing lyrics and tabs in a legal way, paying royalties each year to a few organizations. Then, all lyrics and tabs were removed from the site. Now, there's a new owner to the site, which purchased it August 26, 2014, and he is in negotiation to obtain licensing from BMI at the moment. If you have a specific DMCA request -- please do not hesitate to contact me via the contact button on top. I will do my very best to keep this site fully legal.

Get our toolbar!