Your One-Stop Source For
Music Lyrics
Bass and Guitar Tabs
and More...
Music Lyrics Bass and Guitar Tabs

 

The Red Hot Chili Peppers Bass Tabs Are Below

Learn To Read Tab
Chords Handbook
Corrections & Additions
Get Official Tab
RHCP tabs @ 911Tabs

Song: Look Around

Artist: Red Hot Chili Peppers

Album: I'm With You

Bassist: Flea

 

Notes with a "." above them are Stacatto

Notes with () around them are ghost notes (barely play them)

 

Intro

 

G||------|-----.---------------------------|---------------------------------|

D||------|-----5---5---5-3-.---------------|-.-------.-------.---------------|

A||------|-----------------5---5---5---3-5-|-6---6---6---6-5-3---3-3-1(1)1-1-|

E||------|-3-------------------------------|---------------------------------|

4 + 1 + + + 2 + + + 3 + + + 4 + + + 1 + + + 2 + + + 3 + + + 4 + + +

 

G|-----.---------------------------|---------------------------------|

D|-----5---5---5-3-.---------------|-.-------------------3-----------|

A|-----------------5---5---5---3-5-|-6---6---6-6-6-5-3-5---0-5-3-1---|

E|-3-------------------------------|---------------------------------|

1 + + + 2 + + + 3 + + + 4 + + + 1 + + + 2 + + + 3 + + + 4 + + +

 

G|-----.---------------------------|---------------------------------|

D|-----5---5---5-3-.---------------|-.-------.-------.-------.-------|

A|-----------------5---5---5---3-5-|-6---6---6---6-5-3---3---1---1---|

E|-3-------------------------------|---------------------------------|

1 + + + 2 + + + 3 + + + 4 + + + 1 + + + 2 + + + 3 + + + 4 + + +

 

G|-----.---------------------------|---------------------------------||

D|-----5---5---5-3-.---------------|-.-------.-------.---------------||

A|-----------------5---5---5---3-5-|-6---6---6---5-4-3---3///16\\\\--||

E|-3-------------------------------|---------------------------------||

1 + + + 2 + + + 3 + + + 4 + + + 1 + + + 2 + + + 3 + + + 4 + + +

 

Verse

 

G||---------------------------------|---------------------------------|

D||-.-------.-------.-------.-------|-.-------.-------.-------.-------|

A||-10--10--10--10--10--10--10--10--|-8---8---8---8---8---8---8---8---|

E||---------------------------------|---------------------------------|

1 + + + 2 + + + 3 + + + 4 + + + 1 + + + 2 + + + 3 + + + 4 + + +

 

G|---------------------------------|---------------------------------|

D|-.-------.-------.-------.-------|-.-------.-------.-------.-------|

A|-6---6---6---6---6---6---6---6---|-3---3---3---3---5---5---5---5---|

E|---------------------------------|---------------------------------|

1 + + + 2 + + + 3 + + + 4 + + + 1 + + + 2 + + + 3 + + + 4 + + +

 

G|-----------------------------------|-----------------------10------------|

D|-.-------.-------.---10h12-10--8---|-.-------.-------10/12-----12p10\8---|

A|-10--10--10--10--10----------------|-8---8---8---8-----------------------|

E|-----------------------------------|-------------------------------------|

1 + + + 2 + + + 3 + + + 4 + + + 1 + + + 2 + + + 3 + + + 4 + + +

 

G|-----------------------------------|---------------------------------|

D|-.-------.-------------------------|-.-------.-------.-------.-------|

A|-6---6---6---6---8/10-8-6-8/10-8-6-|-3---3---3---3---5---5---5---5---|

E|-----------------------------------|---------------------------------|

1 + + + 2 + + + 3 + + + 4 + + + 1 + + + 2 + + + 3 + + + 4 + + +

 

G|---------------------------------|---------------------------------|

D|-.---.---.---.---.---.---.---.---|-.---.---.---.---.---.---.---.---|

A|-10--10--10--10--10--10--10--10--|-8---8---8---8---8---8---8---8---|

E|---------------------------------|---------------------------------|

1 + + + 2 + + + 3 + + + 4 + + + 1 + + + 2 + + + 3 + + + 4 + + +

 

G|---------------------------------|---------------------------------|

D|-.---.---.---.---.---.---.---.---|-.---.---.---.---.---.---.---.---|

A|-6---6---6---6---6---6---6---6---|-3---3---3---3---5---5---5---5---|

E|---------------------------------|---------------------------------|

1 + + + 2 + + + 3 + + + 4 + + + 1 + + + 2 + + + 3 + + + 4 + + +

 

G|---------------------------------|---------------------------------|

D|-.---.---.---.---.---.---.---.---|-.---.---.---.---.---.---.---.---|

A|-10--10--10--10--10--10--10--10--|-8---8---8---8---8---8---8---8---|

E|---------------------------------|---------------------------------|

1 + + + 2 + + + 3 + + + 4 + + + 1 + + + 2 + + + 3 + + + 4 + + +

 

G|---------------------------------|---------------------------------||

D|-.---.---.---.---.---.-----------|-.---.---.-------.---.---.---.---||

A|-6---6---6---6---6---6---6-8-6---|-3---3---3---3-4-5---5---5---5---||

E|---------------------------------|---------------------------------||

1 + + + 2 + + + 3 + + + 4 + + + 1 + + + 2 + + + 3 + + + 4 + + +

 

Chorus

 

G||-----.---------------------------|---------------------------------|

D||-----5---5---5-3-.---------------|-.-------.-------.---------------|

A||-----------------5---5---5---3-5-|-6---6---6---6-5-3---3---1-3-1---|

E||-3-------------------------------|---------------------------------|

1 + + + 2 + + + 3 + + + 4 + + + 1 + + + 2 + + + 3 + + + 4 + + +

 

G|-----.---------------------------|---------------------------------|

D|-----5---5---5-3-.---------------|-.-------------------------------|

A|-----------------5---5---5---3-5-|-6---6---6---5-4-3---------------|

E|-3-------------------------------|-------------------0-0---1---2---|

1 + + + 2 + + + 3 + + + 4 + + + 1 + + + 2 + + + 3 + + + 4 + + +

 

G|-----.---------------------------|---------------------------------|

D|-----5---5---5-3-.---------------|-.-------.-----------3-----------|

A|-----------------5---5---5---3-5-|-6---6---6---6-5-3-5-----5\3-1---|

E|-3-------------------------------|---------------------------------|

1 + + + 2 + + + 3 + + + 4 + + + 1 + + + 2 + + + 3 + + + 4 + + +

 

G|-----.---------------------------|---------------------------------||

D|-----5---5---5-3-.---------------|-.-------.-------.---------------||

A|-----------------5---5---5---3-5-|-6---6---6---6-5-3---3///15\\\\--||

E|-3-------------------------------|---------------------------------||

1 + + + 2 + + + 3 + + + 4 + + + 1 + + + 2 + + + 3 + + + 4 + + +

 

Interlude

 

G||---------------------------------|-----------------------------------|

D||-.-------.-------.-------8-------|-.-------.---10h12-10--8-----------|

A||-10--10--10--10--10--10------10--|-8---8---8-----------------10--8---|

E||---------------------------------|-----------------------------------|

1 + + + 2 + + + 3 + + + 4 + + + 1 + + + 2 + + + 3 + + + 4 + + +

 

G|-----------------------------------|---------------------------------||

D|-.-------.-------.-----------------|-.-------3-------.-------.-------||

A|-6---6---6---6---8/10-8-6-8/10-8-6-|-3---3-------3---5---5---5---5---||

E|-----------------------------------|---------------------------------||

1 + + + 2 + + + 3 + + + 4 + + + 1 + + + 2 + + + 3 + + + 4 + + +

 

Verse

 

G||---------------------------------|---------------------------------|

D||-.-------.-------.-------.---8---|-.-------.-------.-------10------|

A||-10--10--10--10--10--10--10------|-8---8---8---8---8---8-------8---|

E||---------------------------------|---------------------------------|

1 + + + 2 + + + 3 + + + 4 + + + 1 + + + 2 + + + 3 + + + 4 + + +

 

G|---------------------------------|---------------------------------|

D|-.-------.-------.-------.-------|-.-------.-------.-------.-------|

A|-6---6---6---6---6---6---6---6---|-3---3---3---3---5---5---5---5---|

E|---------------------------------|---------------------------------|

1 + + + 2 + + + 3 + + + 4 + + + 1 + + + 2 + + + 3 + + + 4 + + +

 

G|---------------------------------|---------------------------------|

D|-.-------.-------.-------.-------|-.-------.-------.-------.-------|

A|-10--10--10--10--10--10--10--10--|-8---8---8---8---8---8---8---8---|

E|---------------------------------|---------------------------------|

1 + + + 2 + + + 3 + + + 4 + + + 1 + + + 2 + + + 3 + + + 4 + + +

 

G|---------------------------------|---------------------------------|

D|-.-------.-------.-------.-------|-.---.-----------.---.---3-3-.---|

A|-6---6---6---6---6---6---6---6---|-3---3---3-3-3-4-5---5-------5---|

E|---------------------------------|---------------------------------|

1 + + + 2 + + + 3 + + + 4 + + + 1 + + + 2 + + + 3 + + + 4 + + +

 

G|-----------------^ bend up 3/4ths-|----------------------------------|

D|-.---.---.---.---10^-8---10-8-----|-.---.---.---.-10/12-10--8--------|

A|-10--10--10--10---------------10--|-8---8---8---8-------------10-8---|

E|----------------------------------|----------------------------------|

1 + + + 2 + + + 3 + + + 4 + + + 1 + + + 2 + + + 3 + + + 4 + + +

 

G|---------------------------------|---------------------------------||

D|-.---.---.---.---.---.---.---.---|-.---.---.-------.---.---.---.---||

A|-6---6---6---6---6---6---6---6---|-3---3---3---3-4-5---5---5---5---||

E|---------------------------------|---------------------------------||

1 + + + 2 + + + 3 + + + 4 + + + 1 + + + 2 + + + 3 + + + 4 + + +

 

Chorus

 

G||-----.---------------------------|---------------------------------|

D||-----5---5---5-3-.---------------|-.-------.-----------------------|

A||-----------------5---5---5---3-5-|-6---6---6---6-5-3-0-1---3---1---|

E||-3-------------------------------|---------------------------------|

1 + + + 2 + + + 3 + + + 4 + + + 1 + + + 2 + + + 3 + + + 4 + + +

 

G|-----.---------------------------|---------------------------------|

D|-----5---5---5-3-.---------------|-.-------.-------.---.---.---.---|

A|-----------------5---5---5---3-5-|-6---6---6---5-4-3---3---3---3---|

E|-3-------------------------------|---------------------------------|

1 + + + 2 + + + 3 + + + 4 + + + 1 + + + 2 + + + 3 + + + 4 + + +

 

G|-----.---------------------------|---------------------------------|

D|-----5---5---5-3-.---------------|-.-------.-----------3-----------|

A|-----------------5---5---5---3-5-|-6---6---6---6-5-3-5-----5-3-1---|

E|-3-------------------------------|---------------------------------|

1 + + + 2 + + + 3 + + + 4 + + + 1 + + + 2 + + + 3 + + + 4 + + +

 

G|-----.---------------------------|---------------------------------||

D|-----5---5---5-3-.---------------|-.-------.-------.-------.-------||

A|-----------------5---5---5---3-5-|-6---6---6---5-5-3---3---1---1---||

E|-3-------------------------------|---------------------------------||

1 + + + 2 + + + 3 + + + 4 + + + 1 + + + 2 + + + 3 + + + 4 + + +

 

Interlude

 

G||---------------------------------|-------7/9---------5/7-7-7-------|

D||-------7-----5-----7-------------|-----7-----X-----5---------5-7---|

A||-0---7-----7-----7-----------7-6-|-5-----------3-------------------|

E||---------------------------------|---------------------------------|

1 + + + 2 + + + 3 + + + 4 + + + 1 + + + 2 + + + 3 + + + 4 + + +

 

G|---------------------------------|-------7/9---------5/7-7-7-------|

D|-------7-----5-----7-------------|-----7-----X-----5---------5-7---|

A|-0---7-----7-----7-----------7-6-|-5-----------3-------------------|

E|---------------------------------|---------------------------------|

1 + + + 2 + + + 3 + + + 4 + + + 1 + + + 2 + + + 3 + + + 4 + + +

 

G|---------------------------------|-------7/9---------5/7~~/12------|

D|-------7-----5-----7-------------|-----7-----X-----5---------------|

A|-0---7-----7-----7-----------7-6-|-5-----------3-------------------|

E|---------------------------------|---------------------------------|

1 + + + 2 + + + 3 + + + 4 + + + 1 + + + 2 + + + 3 + + + 4 + + +

 

G|---------------------------------|-------7/9---------5/7-7-7-------|

D|-------7-----5-----7-------------|-----7-----X-----5---------5-7---|

A|-0---7-----7-----7-----------7-6-|-5-----------3-------------------|

E|---------------------------------|---------------------------------|

1 + + + 2 + + + 3 + + + 4 + + + 1 + + + 2 + + + 3 + + + 4 + + +

 

G|---------------------------------|-------7/9---------5/7-7-7-------|

D|-------7-----5-----7-------------|-----7-----X-----5---------------|

A|-0---7-----7-----7-----------7-6-|-5-----------3-------------5-7---|

E|---------------------------------|---------------------------------|

1 + + + 2 + + + 3 + + + 4 + + + 1 + + + 2 + + + 3 + + + 4 + + +

 

G|---------------------------------|-------7/9---------5/7~~/12------||

D|-------7-----5-----7-------------|-----7-----X-----5---------------||

A|-0---7-----7-----7-----------7-6-|-5-----------3-------------------||

E|---------------------------------|---------------------------------||

1 + + + 2 + + + 3 + + + 4 + + + 1 + + + 2 + + + 3 + + + 4 + + +

 

Bridge

 

G||------------------------------------|---------------------------------|

D||-.-------.-------.------------------|-.-------.-------.-------.-------|

A||-10--10--10--10--10--10--10-10-10---|-8---8---8---8---8---8---8---8-8-|

E||------------------------------------|---------------------------------|

1 + + + 2 + + + 3 + + + 4 + + + 1 + + + 2 + + + 3 + + + 4 + + +

 

G|---------------------------------|---------------------------------|

D|-.-------.-------.---------------|-.-------.-------.-------.-------|

A|-6---6---6---6---6---6---6-6-6---|-3---3---3---3-4-5---5---5---5---|

E|---------------------------------|---------------------------------|

1 + + + 2 + + + 3 + + + 4 + + + 1 + + + 2 + + + 3 + + + 4 + + +

 

G||-------------------------------------|---------------------------------|

D||-.-------.-------.-------------------|-.-------.-------.-------.-------|

A||-10--10--10--10--10--10--10---10-10--|-8---8---8---8---8---8---8---8---|

E||-------------------------------------|---------------------------------|

1 + + + 2 + + + 3 + + + 4 + + + 1 + + + 2 + + + 3 + + + 4 + + +

 

G|---------------------------------|---------------------------------||

D|-.-------.-------.---------------|-.-------.-------.-------.-------||

A|-6---6---6---6---6---6---6---6-5-|-3---3---3---3-4-5---5---5---5---||

E|---------------------------------|---------------------------------||

1 + + + 2 + + + 3 + + + 4 + + + 1 + + + 2 + + + 3 + + + 4 + + +

 

Chorus

 

G||-----.---------------------------|---------------------------------|

D||-----5---5---5-3-.---------------|-.-------.-----------------------|

A||-----------------5---5---5---3-5-|-6---6---6---6-5-3---3---3-5-3-1-|

E||-3-------------------------------|---------------------------------|

1 + + + 2 + + + 3 + + + 4 + + + 1 + + + 2 + + + 3 + + + 4 + + +

 

G|-----.---------------------------|---------------------------------|

D|-----5---5---5-3-.---------------|-.-------.-------.---------------|

A|-----------------5---5---5---3-5-|-6---6---6---5-4-3-3-------------|

E|-3-------------------------------|---------------------0---1---2-2-|

1 + + + 2 + + + 3 + + + 4 + + + 1 + + + 2 + + + 3 + + + 4 + + +

 

G|-----.---------------------------|---------------------------------|

D|-----5---5---5-3-.---------------|-.-------.-------.---7-8-7-------|

A|-----------------5---5---5---3-5-|-6---6---6---6-5-3---------8-5---|

E|-3-------------------------------|---------------------------------|

1 + + + 2 + + + 3 + + + 4 + + + 1 + + + 2 + + + 3 + + + 4 + + +

 

G|-----.---------------------------|------10---------------------------------|

D|-----5---5---5-3-.-------------8-|-10/12--121110-8-10----------------------|

A|-----------------5---5---5---10--|----------------------8-10-10-10-3-5-5-3-|

E|-3-------------------------------|-----------------------------------------|

1 + + + 2 + + + 3 + + + 4 + + + 1 + + + 2 + + + 3 + + + 4 + + +

 

G|-----.---------------------------|---------------------------------|

D|-----5---5---5-3-.---------------|-.-------.-----------------------|

A|-----------------5---5---5---3-5-|-6---6---6---6-5-3-3-1---3---1---|

E|-3-------------------------------|---------------------------------|

1 + + + 2 + + + 3 + + + 4 + + + 1 + + + 2 + + + 3 + + + 4 + + +

 

G|-----.---------------------------|---------------------------------|

D|-----5---5---5-3-.---------------|-------------------------------3-|

A|-----------------5---5---5---3-5-|-6---6-6-5---5-5-3---3-3-1---1---|

E|-3-------------------------------|---------------------------------|

1 + + + 2 + + + 3 + + + 4 + + + 1 + + + 2 + + + 3 + + + 4 + + +

 

G|-----.---------------------------|---------------------------------|

D|-----5---5---5-3-.---------------|-.-------.---------------3---5---|

A|-----------------5---5---5---3-5-|-6---6---6---6-5-3-3-5-----------|

E|-3-------------------------------|---------------------------------|

1 + + + 2 + + + 3 + + + 4 + + + 1 + + + 2 + + + 3 + + + 4 + + +

 

G|-----.---------------------------|---------rall.~~~~~~~~~~~~~~~~~~~||

D|-----5---5---5-3-.---------------|---------8---7---5-------3-------||

A|-----------------5---5---5---3-5-|-6-------------------------------||

E|-3-------------------------------|---------------------------------||

1 + + + 2 + + + 3 + + + 4 + + + 1 + + + 2 + + + 3 + + + 4 + + +

 

Outro

 

G|---------------------------------|---------------------------------||

D|---------------------------------|---------------------------------||

A|---------------------------------|---------------------------------||

E|-3~~~~~~~~~~~~~~~~~~~~~~~~~~~////|-15-then doodle around-----------||

1 + + + 2 + + + 3 + + + 4 + + + 1 + + + 2 + + + 3 + + + 4 + + +

Return to my Red Hot Chili Peppers Bass Tabs page

The Tablature is Copyright its respective owners.

Sign Up For My Newsletter
Subscribe | Unsubscribe

Site Map | Disclaimer | Privacy Policy | Media Kit | Submissions/Corrections

Website © 2000-2014 mattsmusicpage.com. All rights reserved.

Legal & DMCA: Matt's Music Page has been providing lyrics and tabs in a legal way, paying royalties each year to a few organizations. Then, all lyrics and tabs were removed from the site. Now, there's a new owner to the site, which purchased it August 26, 2014, and he is in negotiation to obtain licensing from BMI at the moment. If you have a specific DMCA request -- please do not hesitate to contact me via the contact button on top. I will do my very best to keep this site fully legal.

Get our toolbar!