Your One-Stop Source For
Music Lyrics
Bass and Guitar Tabs
and More...
Music Lyrics Bass and Guitar Tabs

 

The Red Hot Chili Peppers Bass Tabs Are Below

Learn To Read Tab
Chords Handbook
Corrections & Additions
Get Official Tab
RHCP tabs @ 911Tabs

P = Pull of

H= Hammer on

 

*Made by Reniet*

I used the official video for this tab.

 

0:38

G----------------|

D--5--5--5--5--5-|

A----------------|

E----------------|

 

0:43

G-2--2---2--2-------2--2---2--2-------------------|

D-0--0---0--0--3P0--0--0---0--0-------------------|

A-------------------------------------3H5---------|

E---------------------------------3H5-------------|

 

G-2--2---2--2-------2--2---2--2--5P0-----------|

D-0--0---0--0--3P0--0--0---0--0-----3P0--------|

A----------------------------------------------|

E----------------------------------------------|

 

G-2--2---2--2-----------2--2---2--2----------------|

D-0--0---0--0-----------0--0---0--0--3P0-3P0-------|

A-----------------3H5------------------------------|

E--------------3H5---------------------------------|

 

1:08

2X

G-2--2---2--2--4-5---2--2---2--2--4-5-4--------|

D-0--0---0--0--0-0---0--0---0--0--0-0-0--------|

A----------------------------------------------|

E----------------------------------------------|

 

1:25

G----7-5-5------------3-2-2-------------|

D-------7-7-5--3-5-------5-5-3---3------|

A--5----------------1-----------5-------|

E---------------------------------------|

 

G---------------------------------------------|

D----7-5------5-3-----------------------------|

A-------7-5------5-3----5-6-7-8---7-8-9-10----|

E--5---------3---------6---------8------------|

 

G----7-5-5------------3-2-2-------------|

D-------7-7-5--3-5-------5-5-3---3------|

A--5----------------1-----------5-------|

E---------------------------------------|

 

G---------------------------------7-5-----------|

D----7-5------5-3--------------------7-5--------|

A-------7-5------5-3----5-6-7-8---------8-5-----|

E--5---------3---------6------------------------|

 

 

1:42

G-2--2---2--2----------2--2---2--2---------------|

D-0--0---0--0----3P0---0--0---0--0--3P0----------|

A---------------------------------------3H5------|

E--------------5P3-------------------------------|

 

G-2--2---2--2--------2--2---2--2----------------|

D-0--0---0--0--------0--0---0--0----------------|

A----------------------------------0H3----------|

E---------------3P1-----------------------------|

 

G-2--2---2--2----------2--2---2--2-------------------|

D-0--0---0--0-----3P0--0--0---0--0--3P0-3P0-3--------|

A--------------0H3-----------------------------------|

E----------------------------------------------------|

 

2:08

 

G-2--2---2--2--4-5---2--2---2--2--4-5-4--------|

D-0--0---0--0--0-0---0--0---0--0--0-0-0--------|

A----------------------------------------------|

E----------------------------------------------|

 

2X

G-2--2--4-5--2--2--4-5-4------------|

D-0--0--0-0--0--0--0-0-0------------|

A-----------------------------------|

E-----------------------------------|

 

 

2:25

G----7-5-5------------3-2-2-------------|

D-------7-7-5--3-5-------5-5-3---3------|

A--5----------------1-----------5-------|

E---------------------------------------|

 

G---------------------------------------------|

D----7-5------5-3-----------------------------|

A-------7-5------5-3----5-6-7-8---7-8-9-10----|

E--5---------3---------6---------8------------|

 

G----7-5-5------------3-2-2-------------|

D-------7-7-5--3-5-------5-5-3---3------|

A--5----------------1-----------5-------|

E---------------------------------------|

 

G---------------------------------7-5-----------|

D----7-5------5-3--------------------7-5--------|

A-------7-5------5-3----5-6-7-8---------8-5-----|

E--5---------3---------6------------------------|

 

2:43

G---------|

D---------|

A--5------|

E---------|

 

3:00

G------------------------------------------|

D------------------------------------------|

A--3-3-3-3-3-5--3-3-3-6-3-5----------------|

E------------------------------------------|

 

 

3:17

G-2--2---2--2--4-5---2--2---2--2--4-5-4--------|

D-0--0---0--0--0-0---0--0---0--0--0-0-0--------|

A----------------------------------------------|

E----------------------------------------------|

 

2X

G-2--2--4-5--2--2--4-5-4------------|

D-0--0--0-0--0--0--0-0-0------------|

A-----------------------------------|

E-----------------------------------|

 

3:34

1 1 + 2 (3X)

G----7-5-5------------3-2-2-------------|

D-------7-7-5--3-5-------5-5-3---3------|

A--5----------------1-----------5-------|

E---------------------------------------|

 

2

G---------------------------------------------|

D----7-5------5-3-----------------------------|

A-------7-5------5-3----5-6-7-8---7-8-9-10----|

E--5---------3---------6---------8------------|

 

3

G---------------------------------7-5-----------|

D----7-5------5-3--------------------7-5--------|

A-------7-5------5-3----5-6-7-8---------8-5-----|

E--5---------3---------6------------------------|

Return to my Red Hot Chili Peppers Bass Tabs page

The Tablature is Copyright its respective owners.

Sign Up For My Newsletter
Subscribe | Unsubscribe

Site Map | Disclaimer | Privacy Policy | Media Kit | Submissions/Corrections

Website © 2000-2014 mattsmusicpage.com. All rights reserved.

Get our toolbar!