Your One-Stop Source For
Music Lyrics
Bass and Guitar Tabs
and More...
>Music Lyrics Bass and Guitar Tabs

 

The Tabs Are Below

Learn To Read Tab
Chords Handbook
Corrections & Additions
Get Official Tab
RHCP tabs @ 911Tabs

Song: Fortune Faded

Artist: Red Hot Chili Peppers

Album: Upcoming new album

 

Hi,

I've been searching a long time to find a tab from this song

but I couldn't find it so I decided to try it (FOR THE FIRST TIME) by myself..

So I hope you like it and if you don't...remember that I figured out this song from a

live version (Utrecht, Holland 23-8-2001).

Feel free to contact me with corrections @ flea2oo1@hotmail.com

 

Intro

e :---------------------------------------------------|

B :--------9------------------------------------------|

G :--------11-----------------------------------------|

D :--*32x*-11-----------------------------------------|

A :---------------------------------------------------|

E :---------------------------------------------------|

 

Riff 1

/e :--14-------14-------------------------9------------|

/ B :12---14-12----14-12--10-11-10-11-10----------------|

/ G :-----------------------------------11--------------|

D :---------------------------------------------------|

A :---------------------------------------------------|

E :---------------------------------------------------|

1x

e :--14-------14--------------------------------------|

B :12---14-12----14-12--10~----10~--------------------|

G :------------------------11~----11~-----------------|

\ D :---------------------------------------------------|

\ A :---------------------------------------------------|

\E :---------------------------------------------------|

 

 

Verse

V ^ V V ^ V

/e :---------------------------------------------------|

/ B :-----------12-12-12--12-12-12----------------------|

G :11-11-11~--14-14-14--14-14-14----------------------|

2x D :12-12-12~--14-14-14--14-14-14----------------------|

\ A :12-12-12~------------------------------------------|

\E :---------------------------------------------------|

 

 

Riff 2

/e :--14-------14-------------------------9~-----------|

/ B :12---14-12----14-12--10-11-10-11-10----------------|

/ G :-----------------------------------11--------------|

D :---------------------------------------------------|

A :---------------------------------------------------|

E :---------------------------------------------------|

1x

e :--14-------14---------------9~---------------------|

B :12---14-12----14-12--10~---------------------------|

G :------------------------11~------------------------|

\ D :---------------------------------------------------|

\ A :---------------------------------------------------|

\E :---------------------------------------------------|

 

 

Chorus

/e :---------------------------|------------------------|

/ B :------12-12-12-7-7-7-------|-------12-12-7-7--------|

G :11-11-14-14-14-9-9-9-9-9-9-|-11-11-14-14-9-9-9-9----|

2x D :12-12-14-14-14-9-9-9-9-9-9-|-12-12-14-14-9-9-9-9----|

\ A :12-12----------------7-7-7-|-12-12-----------7-7----|

\E :---------------------------|------------------------|

 

 

Riff 1

/e :--14-------14-------------------------9------------|

/ B :12---14-12----14-12--10-11-10-11-10----------------|

/ G :-----------------------------------11--------------|

D :---------------------------------------------------|

A :---------------------------------------------------|

E :---------------------------------------------------|

1x

e :--14-------14--------------------------------------|

B :12---14-12----14-12--10~----10~--------------------|

G :------------------------11~----11~-----------------|

\ D :---------------------------------------------------|

\ A :---------------------------------------------------|

\E :---------------------------------------------------|

 

 

Verse

V ^ V V ^ V

/e :---------------------------------------------------|

/ B :-----------12-12-12--12-12-12----------------------|

G :11-11-11~--14-14-14--14-14-14----------------------|

2x D :12-12-12~--14-14-14--14-14-14----------------------|

\ A :12-12-12~------------------------------------------|

\E :---------------------------------------------------|

 

 

Riff 2

/e :--14-------14-------------------------9~-----------|

/ B :12---14-12----14-12--10-11-10-11-10----------------|

/ G :-----------------------------------11--------------|

D :---------------------------------------------------|

A :---------------------------------------------------|

E :---------------------------------------------------|

1x

e :--14-------14---------------9~---------------------|

B :12---14-12----14-12--10~---------------------------|

G :------------------------11~------------------------|

\ D :---------------------------------------------------|

\ A :---------------------------------------------------|

\E :---------------------------------------------------|

 

 

Chorus

/e :---------------------------|------------------------|

/ B :------12-12-12-7-7-7-------|-------12-12-7-7--------|

G :11-11-14-14-14-9-9-9-9-9-9-|-11-11-14-14-9-9-9-9----|

2x D :12-12-14-14-14-9-9-9-9-9-9-|-12-12-14-14-9-9-9-9----|

\ A :12-12----------------7-7-7-|-12-12-----------7-7----|

\E :---------------------------|------------------------|

 

BASS SOLO, after a while Guitar comes in with something like this:

 

e :---------------------------------------------------|

B :--------9------------------------------------------|

G :--------11-----------------------------------------|

D :--*32x*-11-----------------------------------------|

A :---------------------------------------------------|

E :---------------------------------------------------|

 

 

Chorus

/e :---------------------------|------------------------|

/ B :------12-12-12-7-7-7-------|-------12-12-7-7--------|

 

G :11-11-14-14-14-9-9-9-9-9-9-|-11-11-14-14-9-9-9-9----|

3x D :12-12-14-14-14-9-9-9-9-9-9-|-12-12-14-14-9-9-9-9----|

\ A :12-12----------------7-7-7-|-12-12-----------7-7----|

\E :---------------------------|------------------------|

 

Ending

/e :---------------------------|------------------------|

/ B :------12-12-12-7-7-7-------|-------12-12------------|

G :11-11-14-14-14-9-9-9-9-9-9-|-11-11-14-14------------|

1x D :12-12-14-14-14-9-9-9-9-9-9-|-12-12-14-14------------|

\ A :12-12----------------7-7-7-|-12-12------------------|

\E :---------------------------|------------------------|

 

 

And that's all, the timing is probably not right but I think You'll

be able to figure that out yourself when you play along with the song.

 

Grtz,

 

Matthijs

 

 

Return to my Red Hot Chili Peppers tabs page

The Tablature is Copyright its respective owners.

Sign Up For My Newsletter
Subscribe | Unsubscribe

Site Map | Disclaimer | Privacy Policy | Media Kit | Submissions/Corrections

Website © 2000-2014 mattsmusicpage.com. All rights reserved.

Legal & DMCA: Matt's Music Page has been providing lyrics and tabs in a legal way, paying royalties each year to a few organizations. Then, all lyrics and tabs were removed from the site. Now, there's a new owner to the site, which purchased it August 26, 2014, and he is in negotiation to obtain licensing from BMI at the moment. If you have a specific DMCA request -- please do not hesitate to contact me via the contact button on top. I will do my very best to keep this site fully legal.

Get our toolbar!

 

OLD LARGE HISTORIC PHOTO OF THE ROLLING STONES, MICK JAGGER etc c1962
$5.36
OLD LARGE HISTORIC PHOTO OF THE ROLLING STONES, MICK JAGGER etc c1962 picture


ROLLING STONES WESTWOOD ONE BBC CLASSIC TRACKS SHOW #94-48 CD + CUE SHEET *LIVE*
$14.99
ROLLING STONES WESTWOOD ONE BBC CLASSIC TRACKS SHOW #94-48 CD + CUE SHEET *LIVE* picture


Rolling Stones Im Free Guitar Musical Christmas Ornament NEW In Box
$11.99
Rolling Stones Im Free Guitar Musical Christmas Ornament NEW In Box picture


New in Box Rolling Stones Guitar Musical Ornaments Ruby Tuesday, I'm Free
$19.95
New in Box Rolling Stones Guitar Musical Ornaments Ruby Tuesday, I'm Free picture


ROLLING STONES 2¼" BUTTON classic rock led zeppelin pink floyd lynard skynard
$3.25
ROLLING STONES 2¼