Your One-Stop Source For
Music Lyrics
Bass and Guitar Tabs
and More...
>Music Lyrics Bass and Guitar Tabs

 

The Tabs Are Below

Learn To Read Tab
Chords Handbook
Corrections & Additions
Get Official Tab
RHCP tabs @ 911Tabs

red hot chili peppers

cabron

by neil boniface

dedicated to friends: stew,jason,marcelle and all of you

CAPO:7th but works without

INTRO

D, Bm,x2

 

C

E----3---------------3------------------2-------

B------1-------1-------1-------1--------3-------

D--------0-------0-------0-------0------2-------

G-----------2-------2------2-------2------------

A--3--------------------------------------------

E-----------------------------------------------

 

E--1-0--------22222---------------22222---------

B------3-2-3--33333---3-2---------33333---------

G-------------22222-------3-2-----44444---------

D-----------------------------4---44444---------

A---------------------------------22222---------

E---------------------------------22222---------

verse:with/without above (up to u)

D, Bm,x2

G, A

D, Bm,x2

G, A,

D, Bm,x2

G, A,x2

 

THATS IT CHILDREN. CHILI PEPPERS ARE GODS. PEACE AND LOVE.

 

Return to my Red Hot Chili Peppers tabs page

The Tablature is Copyright its respective owners.

Sign Up For My Newsletter
Subscribe | Unsubscribe

Site Map | Disclaimer | Privacy Policy | Media Kit | Submissions/Corrections

Website © 2000-2014 mattsmusicpage.com. All rights reserved.

Legal & DMCA: Matt's Music Page has been providing lyrics and tabs in a legal way, paying royalties each year to a few organizations. Then, all lyrics and tabs were removed from the site. Now, there's a new owner to the site, which purchased it August 26, 2014, and he is in negotiation to obtain licensing from BMI at the moment. If you have a specific DMCA request -- please do not hesitate to contact me via the contact button on top. I will do my very best to keep this site fully legal.

Get our toolbar!

 

Musical Guitar Plays The Rolling Stones She's A Rainbow Ornament NIB (B32)
$5.0
Musical Guitar Plays The Rolling Stones She's A Rainbow  Ornament NIB (B32) picture


Chrome, Black Matte, Rolling Stones Logo
$21.94
Chrome, Black Matte, Rolling Stones Logo picture


Musical Guitar Plays The Rolling Stones Ruby Tuesday Ornament NIB (B32)
$5.0
Musical Guitar Plays The Rolling Stones Ruby Tuesday  Ornament NIB (B32) picture


Musical Guitar Plays The Rolling Stones I'm Free Ornament NIB (B32)
$5.0
Musical Guitar Plays The Rolling Stones I'm Free  Ornament NIB (B32) picture


1978 Gretsch Charlie Watts Rolling Stones Tony Williams Drum Print Ad
$9.99
1978 Gretsch Charlie Watts Rolling Stones Tony Williams Drum Print Ad picture