Your One-Stop Source For
Music Lyrics
Bass and Guitar Tabs
and More...
Music Lyrics Bass and Guitar Tabs

 

The Tabs Are Below

Learn To Read Tab
Chords Handbook
Corrections & Additions
Get Official Tab
RHCP tabs @ 911Tabs

You Oughta Know

 

By Alanis Morissette and Glen Ballard

Bass: Flea

From the album Jagged Little Pill

Tabbed by Martin Peters

 

Played on fretless bass

 

1st verse:

G-|-------------------------|-------------------------|

D-|-------------------------|-------------------------|

A-|-------------------------|-------------------------|

E-|-2-2---2-2-2----2-2--2-2-|-2-2---2-2-2----2-2--x-2-|

Reapet four times

 

1st Pre-chorus:

G-|-----------------------|----------------------|----------------------|

D-|--------x4-4-----------|---------------2-2-x1-|-------4-4-4----------|

A-|-------------x0---2----|----------------------|------------------2---|

E-|-2-2-----------------0-|-2-2---2-2-2----------|-2-2---------2-2----x-|

 

G-|------------------------|----------------------|-------------x2-1-----|

D-|--------x2-2------------|-------4-4-4----2-2---|----------------------|

A-|--------------x2--2-2h4-|-------------x0-----0-|------------------0h2-|

E-|-2-2--------------------|-2-2------------------|-2-2---2-2-2----------|

 

G-|----------------------|---------------------|

D-|---------------4--2---|-------4-4--4--2-----|

A-|--------------------4-|-------------4---4-2-|

E-|-2-2---2-2-2----------|-2-2-----------------|

 

1st Chorus:

G-|------------------------|------------------------|

D-|------------------------|------------------------|

A-|------------------------|------------------------|

E-|-2--2--2--2--2--2--2--2-|-0--0--0--0--0--0--0--0-|

 

G-|------------------------|-----------------------------------|

D-|------------------------|-----------------------------------|

A-|-0--0--0--0--0--0--0--0-|-2--2--2--2--2/12-12-12-12-12--12\-|

E-|------------------------|-----------------------------------|

 

G-|------------------------|------------------------|

D-|------------------------|------------------------|

A-|------------------------|------------------------|

E-|-2--2--2--2--2--2--2--1-|-0--0--0--0--0--0--0--0-|

 

G-|------------------------|------------------------------|

D-|------------------------|------------------------------|

A-|-0--0--0--0--0--0--0--0-|-2--5/6--2--5/6--2--5/6--2--2-|

E-|------------------------|------------------------------|

 

G-|---------------------|

D-|------------2-4------|

A-|----------------0----|

E-|-2-2--------------5--|

 

2nd Verse:

G-|-----------------------|--------------2---------|----------11-x-9----|

D-|-------------x-2--1----|------------------2-4---|-----------------7--|

A-|---------------------0-|----------------4-----2-|--------------------|

E-|-2-2---x2-2------------|-2-2---2-2-2------------|-2-2----------------|

 

G-|--------------------|---------------------|----------------------|

D-|-----------4--2-----|---------------------|----------------------|

A-|----------------0-2-|--------------0-0-x2-|------------------x---|

E-|-2-2---x2-----------|-2-2---2-2-2---------|-2-2---2-2-2--0-2---0-|

 

G-|-------------------------|----------------------|--------------------|

D-|-------------------------|-------------x1-2-----|------4-4-4-x2------|

A-|------------------2-2--0-|------------------0---|----------------2/4-|

E-|-2-2---2-2-2--2-0--------|-2-2---2-2-2--------x-|-2-2----------------|

 

G-|----------------2-4------|-----------------------|-------------------|

D-|--------4-4-4-------x-3--|--------4-4-4----------|------------/9-7---|

A-|-------------------------|---------------x0-2----|-----------------8-|

E-|-2-2---------------------|-2-2---------------x-0-|-2-2--2-2-2--------|

 

G-|------------------------|----------------2---|----------------------|

D-|---------------/4-2-----|--------------------|----------------------|

A-|--------------------0-x-|--------------------|----------------0-2---|

E-|-2-2---2-2-2------------|-2-2----2-2--2------|-2-2---2-2-2-2------0-|

P

 

G-|----------------------------|

D-|----------------------------|

A-|--------0-0--0--2--3--0-----|

E-|-2-2--2------------------0--|

 

2nd Pre-chorus

G-|-----------------------|---------9-9-----------|--------------------2-|

D-|-----------------------|--------------x7-------|----------------2-4---|

A-|--------------0--2-----|-----------------9-7\6-|-------------x-2------|

E-|--2---2-2-x-2------0-0-|-2-2-------------------|-2-2--2-2-2-----------|

 

G-|---------------------9------|-------------------------|

D-|-4-4----7-7--11-9-11--------|-4-4---4-4-4--2-2--4-2---|

A-|----------------------11-12-|-----------------------4-|

E-|----------------------------|-------------------------|

 

G-|-------------------------|------------------------|-------------------|

D-|-------------------------|----------------------2-|-----4-4-----------|

A-|--------------0--2-0-----|----------------0-2-4---|---------4-2-4-----|

E-|-2-2--2-2-x-2--------2-0-|-2-2--2-2-2-x-2---------|-2-2-----------2-0-|

 

2nd Chorus

G-|------------------------|------------------------|

D-|------------------------|------------------------|

A-|------------------------|------------------------|

E-|-2--2--2--2--2--2--2--2-|-0--0--0--0--0--0--0--0-|

 

G-|------------------------|-----------------------------------|

D-|------------------------|-----------------------------------|

A-|-0--0--0--0--0--0--0--0-|-2--2--2--2--2/12-12-12-12-12--12\-|

E-|------------------------|-----------------------------------|

 

G-|------------------------|------------------------|

D-|------------------------|------------------------|

A-|------------------------|------------------------|

E-|-2--2--2--2--2--2--2--1-|-0--0--0--0--0--0--0--0-|

 

G-|-----------------------|------------------------------|

D-|-----------------------|------------------------------|

A-|-0--0--0--0-0--0--0--2-|-5/6--2--5/6--2--5/6--2--4\2--|

E-|-----------------------|------------------------------|

 

3rd Pre-chorus:

G-|-----------------------|-------------1/2---------|--------------------|

D-|--------2-2------------|---------------------2---|-----------x1-2-----|

A-|------------0-0--2-0---|-----------------4-4---2-|----------------0---|

E-|-2-2-----------------2-|-2-2---2-2-2-------------|-2-2---2-2--------5-|

 

G-|---------------------------|--------------------|---------------------|

D-|---------------------------|----------------1-2-|---------------2-1-0-|

A-|-------------2-2/4\2-0-----|------------4-4-----|-------------4-------|

E-|-2-2---2-0-2-----------2-0-|-2-2--2-2-2---------|-2-2---2-2-2---------|

 

G-|------------------------|-------------------------|

D-|--------4-4-4--x1-2-----|-------------------------|

A-|--------------------0---|--------0-2-2/4--2-0-----|

E-|-2-2------------------5-|-2-2--2--------------2-0-|

 

3rd Chorus:

G-|------------------------|------------------------|

D-|------------------------|------------------------|

A-|------------------------|------------------------|

E-|-2--2--2--2--2--2--2--2-|-0--0--0--0--0--0--0--0-|

 

G-|------------------------|------------------------|

D-|------------------------|----------------4-2-----|

A-|-0--0--0--0--0--0--0--0-|-2--2--2--2-2/4-----4-2-|

E-|------------------------|------------------------|

 

G-|------------------------|------------------------|

D-|------------------------|------------------------|

A-|------------------------|------------------------|

E-|-2--2--2--2--2--2--2--1-|-0--0--0--0--0--0--0--0-|

 

G-|------------------------|------------------------|

D-|------------------------|------------------------|

A-|-0--0--0--0--0--0--0--0-|-2--2--2--2--2--2--2--2-|

E-|------------------------|------------------------|

 

G-|------------------------|------------------------|

D-|------------------------|------------------------|

A-|-2--2--2--2--2--2--2--2-|------------------------|

E-|------------------------|-2--2--2--2--2--2--2--2-|

 

G-|------------------------|------------------------|

D-|------------------------|------------------------|

A-|------------------------|-0--0--0--0--0--0--0--0-|

E-|-0--0--0--0--0--0--0--0-|------------------------|

 

G-|----------------------------------|------------------------|

D-|----------------------------------|------------------------|

A-|-2--2--2--2-2/12-12-12-12-13--13\-|------------------------|

E-|----------------------------------|-2--2--2--2--2--2--2--2-|

 

G-|------------------------|------------------------|--------------------|

D-|------------------------|------------------------|--------------------|

A-|---------------/4--2--1-|-0--0--0--0--0--0--0--0-|-2-5/6--2-5/6--2--2-|

E-|-0--0--0--0--0----------|------------------------|--------------------|

 

 

Return to my Red Hot Chili Peppers bass tabs page

The Tablature is Copyright its respective owners.

Sign Up For My Newsletter
Subscribe | Unsubscribe

Site Map | Disclaimer | Privacy Policy | Media Kit | Submissions/Corrections

Website © 2000-2014 mattsmusicpage.com. All rights reserved.

Get our toolbar!