Your One-Stop Source For
Music Lyrics
Bass and Guitar Tabs
and More...
Music Lyrics Bass and Guitar Tabs

 

The Tabs Are Below

Learn To Read Tab
Chords Handbook
Corrections & Additions
Get Official Tab
RHCP tabs @ 911Tabs

Song: What Is Soul?

Album: Off The Map (DVD)

Artist: Red Hot Chili Peppers

Tabbed By: Simeon BArtholomew (simeon_oz@yahoo.com)

 

It's a short, funky song with a mad solo at the end. Pretty easy to play,

but i haven't put the solo in - i reckon it's more fun if you make it up -

so here it is:

 

Main Riff:

G|------------|------------|----------------|-------------------|

D|---------0x-|-------3-0x-|---------0------|-----------0-3^-0x-|

A|-0-3-0-3----|-0-3-0------|-0-3-0-3--------|----0-3-4----------|

E|------------|------------|-----------1-3--|-3-----------------|

 

thats basically the whole song, here are the notes for the solo in no particular

order:

 

G|--------------------12-14--17-19-|

D|-------12-14--17-19--------------|

A|-12-14---------------------------|

E|---------------------------------|

 

Flea also uses distortion on his bass during his solo, but it sounds

pretty cool using a wah pedal for this songs groove.

 

 

Return to my Red Hot Chili Peppers bass tabs page

The Tablature is Copyright its respective owners.

Sign Up For My Newsletter
Subscribe | Unsubscribe

Site Map | Disclaimer | Privacy Policy | Media Kit | Submissions/Corrections

Website © 2000-2014 mattsmusicpage.com. All rights reserved.

Get our toolbar!