Your One-Stop Source For
Music Lyrics
Bass and Guitar Tabs
and More...
>Music Lyrics Bass and Guitar Tabs

 

The Tabs Are Below

Learn To Read Tab
Chords Handbook
Corrections & Additions
Get Official Tab
RHCP tabs @ 911Tabs

Red Hot Chili Peppers

================================================================================

 

Tabbed by Louis

Song: Universally Speaking

 

Intro:

 

g-7---7---7---7---7---7---7----6--7---7---7---7---7---7---7----6--

d---0---0---0---0---0---0----7------7---7---7---7---7---7----7----*

a-----------------------------------------------------------------*

e-----------------------------------------------------------------

 

Chourus

 

g-----

d-7---* 16 x's

a---0-*

e-----

 

g------------------------------

d-5----5-----5-----5----9-9--9-*

a----3----3----3---------------*

e------------------------------

 

Solo:

 

g------------------------------------------------------------------------------

d-7---7---7---7---5----5-----5-----5------5-----5------5------5-----5----------*

a---0---0---0----------------------------------------------------------5-5-5-5-*

e-------------------3-----3-----3------3------3-----3------3-----3-------------

 

 

Return to my Red Hot Chili Peppers bass tabs page

The Tablature is Copyright its respective owners.

Sign Up For My Newsletter
Subscribe | Unsubscribe

Site Map | Disclaimer | Privacy Policy | Media Kit | Submissions/Corrections

Website © 2000-2014 mattsmusicpage.com. All rights reserved.

Legal & DMCA: Matt's Music Page has been providing lyrics and tabs in a legal way, paying royalties each year to a few organizations. Then, all lyrics and tabs were removed from the site. Now, there's a new owner to the site, which purchased it August 26, 2014, and he is in negotiation to obtain licensing from BMI at the moment. If you have a specific DMCA request -- please do not hesitate to contact me via the contact button on top. I will do my very best to keep this site fully legal.

Get our toolbar!

 

S'more collection Guitar ornament
$20.0
S'more  collection  Guitar ornament   picture


Coors Light Guitar shaped Keychain/ Bottle Opener
$4.69
Coors Light Guitar shaped Keychain/ Bottle Opener picture


Graceful Winged Angel Statue Strumming a Guitar--9" Tall--Beautiful & Unique
$24.95
Graceful Winged Angel Statue Strumming a Guitar--9


TV radio tubes guitar electronics hi fi amplifier ham amp old vintage audio
$1.0
TV radio tubes guitar electronics hi fi amplifier ham amp old vintage audio  picture


License Plate Guitar Rock Band Kiss Vintage Metal Tin Sign Poster Bar decor TL84
$3.99
License Plate Guitar Rock Band Kiss Vintage Metal Tin Sign Poster Bar decor TL84 picture