Your One-Stop Source For
Music Lyrics
Bass and Guitar Tabs
and More...
Music Lyrics Bass and Guitar Tabs

 

The Tabs Are Below

Learn To Read Tab
Chords Handbook
Corrections & Additions
Get Official Tab
RHCP tabs @ 911Tabs

Suck My Kiss

 

By Red Hot Chili Peppers. From the album Blood Sugar Sex Magik

Tabbed By Martin Peters

Bass

 

Intro: (repeat two times)

G-|---------------|---------------|--------------|-----------------7/99--|

D-|---------------|---------------|--------------|------3333-5/777-------|

A-|------1--------|------1--------|------1-------|-3/555-----------------|

E-|-1-3------1--3-|-1-3------1--3-|-1-3-----1--3-|-----------------------|

 

 

Verse parts:

Riff 1a Riff 1b

G-|---------------|----------------------|---------|--------------------|

D-|---------------|----------------------|-3--3----|-3--3---4--4--------|

A-|---------------|---------------1h3p1--|-------3-|------4-------------|

E-|-1-3--3-1-3--3-|-1-3--3-1-3--3------1-|---------|--------------------|

 

 

Chorus:

G-|-------------------|-------|-------------------|-------|

D-|-------5--5--------|-------|-------5--5--------|-------|

A-|---------5---5-----|-------|---------5---5-----|-------|

E-|-0-0-------------0-|-5-5---|-0-0-------------0-|-5-5---|

 

G-|-------------------|---------------|------------------|------|

D-|-------5--5--------|---------------|------5--5--------|------|

A-|---------5---5-----|---------------|--------5---5-----|------|

E-|-0-0-------------0-|-5-5----0-(0)-0|-0-0------------0-|-5-5--|

Play low E(0) first time only.

 

Outro:(last four bars)

G-|-------------------|-------------|-----------------|-------|

D-|------5--5---------|-------------|------5--5-------|-------|

A-|-------5-----5-----|-------------|-------5----5----|-------|

E-|-0-0-------------0-|-5-5-------0-|-0-0-----------0-|-5-5---|

 

Format of the song:

Intro

Pre-verse -riff 1a two times

Verse 1 -riff 1a two times, then riff 1b one, repeat both parts two times

Chorus

Verse 2 -like Verse 1

Chorus

Guitar solo -play intro two times

Verse 3 -like Verse 1

Chorus -only four bars

Outro -last four bars of chorus

 

 

Return to my Red Hot Chili Peppers bass tabs page

The Tablature is Copyright its respective owners.

Sign Up For My Newsletter
Subscribe | Unsubscribe

Site Map | Disclaimer | Privacy Policy | Media Kit | Submissions/Corrections

Website © 2000-2014 mattsmusicpage.com. All rights reserved.

Legal & DMCA: Matt's Music Page has been providing lyrics and tabs in a legal way, paying royalties each year to a few organizations. Then, all lyrics and tabs were removed from the site. Now, there's a new owner to the site, which purchased it August 26, 2014, and he is in negotiation to obtain licensing from BMI at the moment. If you have a specific DMCA request -- please do not hesitate to contact me via the contact button on top. I will do my very best to keep this site fully legal.

Get our toolbar!

 

1939 LYRIC THEATRE New York PHOTO
$5.83
1939 LYRIC THEATRE New York PHOTO picture


Star Spangled Banner or Marines Hymn lyrics signed by WWII Charles W. Lindberg
$10.0
Star Spangled Banner or Marines Hymn lyrics signed by WWII Charles W. Lindberg picture


OLD LARGE HISTORIC PHOTO OF THE LYRIC THEATRE, SYDNEY c1930s, WAR BONDS BOOTH
$7.42
OLD LARGE HISTORIC PHOTO OF THE LYRIC THEATRE, SYDNEY c1930s, WAR BONDS BOOTH picture


SONG OF REVOLUTION CARD SET WITH 13 MOST FAVORED COMMUNIST SONGS LYRICS + NOTES
$24.99
SONG OF REVOLUTION CARD SET WITH 13 MOST FAVORED COMMUNIST SONGS LYRICS + NOTES picture


OLD LARGE HISTORIC PHOTO OF THE LYRIC THEATRE, SYDNEY c1930s, WAR LOANS BOOTH
$7.42
OLD LARGE HISTORIC PHOTO OF THE LYRIC THEATRE, SYDNEY c1930s, WAR LOANS BOOTH picture