Your One-Stop Source For
Music Lyrics
Bass and Guitar Tabs
and More...
Music Lyrics Bass and Guitar Tabs

 

The Tabs Are Below

Learn To Read Tab
Chords Handbook
Corrections & Additions
Get Official Tab
RHCP tabs @ 911Tabs

Soul To Squeeze

By the Red Hot Chili Peppers

From the RedLiveHotRareChiliRemixPeppersBox

Tabbed by Martin Peters

 

Bass

 

Moderatly slow

 

Intro:

G-|-/14----|-------14----14-16-14---|

D-|--------|-14-16----16------------|

A-|--------|------------------------|

E-|--------|------------------------|

 

G-|------------------------|------------------------|

D-|------------------------|------------------------|

A-|-0--0--0--0--0--0--0--0-|-0--0--0--0--0--0--0--0-|

E-|------------------------|------------------------|

Reapet two times

 

Verse:

G-|---------------------|---------------|-------------------|---------------|

D-|---------------------|-0--2--3-------|-----------3-------|---------------|

A-|----------3--3--2--3-|----------1----|-5--5--0-5----5--5-|-3-------------|

E-|-1-1--3-5------------|---------------|-------------------|------3--6--5\-|

 

G-|---------------------|------------3-3-3-|------------------|-----------------|

D-|---------------------|-0--2--3----------|-----------3------|------3-5--------|

A-|----------3--3--2--3-|----------1-------|-5--5--0-5---5--5-|-3--3------5-5---|

E-|-1-1--3-5------------|------------------|------------------|-----------------|

 

Verse variation:

G-|---------------------|------------3-3-|-----------------|------------------|

D-|---------------------|-0--2--3--------|-----------3---3-|------------------|

A-|----------3--3--2--3-|----------1-----|-5--5--0-5---5---|-3--5-3-5---------|

E-|-1-1--3-5------------|----------------|-----------------|-----------3-/6\5-|

 

1st Chorus:

G-|---------|-------------|----------------------|----------|--------------------|

D-|-----7-8-|-10----7---5-|----------------------|-----7--9-|-10----7--7--8--7-5-|

A-|-8-------|---------8---|-5--5--5/7-8-----5-7/-|-8--------|--------------------|

E-|---------|----8--------|-------------6--------|----------|----8---------------|

 

G-|--------------------------------|

D-|--------------------------------|

A-|--5--5--5--5--5--5--5-----------|

E-|-----------------------5---5\6--|

 

2nd Chorus:

G-|---------|---------------|--------------------------|----------|------------------|

D-|-----7-8-|-10----7---5---|--------------------------|------7-8-|-10---7-5-8---7-5-|

A-|-8-------|---------8---5-|-5--5--5/7-8--------------|-8--------|------------5-----|

E-|---------|----8----------|-------------6-5-3/5---6--|----------|----8-------------|

 

G-|----------------------------------|

D-|------------------------7---------|

A-|--5--5--5--5--5--5--5/8-----------|

E-|--------------------------5--6----|

 

Guitar solo:

G-|---------------------|------------3-3-|-------------------|---------------|

D-|---------------------|-0--2--3--------|------------3------|---------------|

A-|----------3--3--2--3-|----------1-----|-5--5--0--5---3--5-|-3-------------|

E-|-1-1--3-5------------|----------------|-------------------|------3--6--5\-|

 

G-|---------------------|------------3-3-3-|---------------|----------------------|

D-|---------------------|-0--2--3----------|----------3--3-|----------------------|

A-|----------3--3--2--3-|----------1-------|-5--5-0--5--3--|-3----3-3-3-3-3-3-3-3-|

E-|-1-1--3-5------------|------------------|---------------|----------------------|

 

G-|----------/10h12--|---------------------------|----------/10h12--|-----------------------|

D-|----12-10-/10-----|-------10---------10-------|----12-10-/10-----|------10-------10------|

A-|------------------|-10-12---12-10-12----12----|------------------|-10-12---10-12---12----|

E-|-10---------------|-------------------------8-|-10---------------|---------------------8-|

 

G-|----------/10h12--|---------------------------|----------/10h12--|-------------------------|

D-|----12-10-/10-----|-------10---------10-------|----12-10-/10-----|------10-------10--------|

A-|------------------|-10-12---12-10-12----12----|------------------|-10-12---10-12-----------|

E-|-10---------------|-------------------------8-|-10---------------|------------------8--6-5-|

 

Last Chorus:

G-|---------|----------------------|------------------------|

D-|-----7-8-|-10----7--7/8-7-5-5---|-----------7------------|

A-|-8-------|--------------------8-|-5--5--5/8----------5-7-|

E-|---------|----8-----------------|-------------6--8\5-----|

 

G-|----------------/12-10-|---------5----------|

D-|--------7-8-10---------|-5---3-5---7/8--7-5-|

A-|-8/9-10----------------|--------------------|

E-|-----------------------|--------------------|

 

G-|---------------------------|-----------------/12-10--|------------5-7------------|

D-|---------------------------|---------7-8-10----------|-10--7h8p7-5----8-7-5-3----|

A-|-5--5--5--5--5--5/8--------|-7/8-9-10----------------|-----------------------3-5-|

E-|---------------------6--3/-|-------------------------|---------------------------|

 

G-|---------------------------|------------------/12-10--|

D-|-------------7-10----------|--10-------7-8-10---------|

A-|-5--5--5-7/8---------------|-8--8-9-10----------------|

E-|-------------------3--6-5\-|--------------------------|

 

G-|---------5-7-5-3-5-3-2-|--------------------------|

D-|-10--8-7---------------|--------------------------|

A-|-----------------------|-5--5--5--5-7-------------|

E-|-----------------------|--------------5--6\----1--|

 

 

Return to my Red Hot Chili Peppers bass tabs page

The Tablature is Copyright its respective owners.

Sign Up For My Newsletter
Subscribe | Unsubscribe

Site Map | Disclaimer | Privacy Policy | Media Kit | Submissions/Corrections

Website © 2000-2014 mattsmusicpage.com. All rights reserved.

Legal & DMCA: Matt's Music Page has been providing lyrics and tabs in a legal way, paying royalties each year to a few organizations. Then, all lyrics and tabs were removed from the site. Now, there's a new owner to the site, which purchased it August 26, 2014, and he is in negotiation to obtain licensing from BMI at the moment. If you have a specific DMCA request -- please do not hesitate to contact me via the contact button on top. I will do my very best to keep this site fully legal.

Get our toolbar!

 

VINTAGE SORRENTO MUSIC JEWELRY BOX
$45.0
VINTAGE SORRENTO MUSIC JEWELRY BOX picture


VINTAGE LACQUERED MUSIC BOX JAPAN
$25.99
VINTAGE LACQUERED MUSIC BOX JAPAN picture


Vintage Kehlsteinhaus Bavaria Germany Colorscope Cow Bell View Master Music Box
$8.99
Vintage Kehlsteinhaus Bavaria Germany Colorscope Cow Bell View Master Music Box picture


VINTAGE SCHMIDT Signed Collectible Musical Turning Clown
$9.99
VINTAGE  SCHMIDT Signed Collectible Musical Turning Clown picture


Vintage - Linen - Postcard - Stage - Radio City Music Hall - New York City
$3.75
Vintage - Linen - Postcard - Stage - Radio City Music Hall - New York City   picture