Your One-Stop Source For
Music Lyrics
Bass and Guitar Tabs
and More...
Music Lyrics Bass and Guitar Tabs

 

The Tabs Are Below

Learn To Read Tab
Chords Handbook
Corrections & Additions
Get Official Tab
RHCP tabs @ 911Tabs

Red Hot Chili Peppers

 

Road Trippin'

from Californication

 

transcribed by Valerio Nalini

 

Intro and verse

|-------------------------------------------------------|

|-------------------------------------------------------|

|-7--7-10-9-7---3--3-2--10-9---7--7-10-9-7---3--3-2-----|

|---------------------------------------------------3-2-|

 

These eyes are just a mirror for the sun...

|------------------------------------|

|--7-7-7--9-9-9--10-10-10--12-12-12--|

|------------------------------------|

|------------------------------------|

 

Interlude

3X

|---------------|---------------------|

|---------------|---------------------|

|-7---0---3---5-|-7---0---3---9-------|

|---------------|---------------------|

 

Ending

|----------------------|

|----------------------|

|--7-------------------|

|----------------------|

 

For any correction or if you have other tabs from Californication please e-mail me at

nalini@intercity.it

 

 

 

 

Return to my Red Hot Chili Peppers bass tabs page

The Tablature is Copyright its respective owners.

Sign Up For My Newsletter
Subscribe | Unsubscribe

Site Map | Disclaimer | Privacy Policy | Media Kit | Submissions/Corrections

Website © 2000-2014 mattsmusicpage.com. All rights reserved.

Get our toolbar!