Your One-Stop Source For
Music Lyrics
Bass and Guitar Tabs
and More...
Music Lyrics Bass and Guitar Tabs

 

The Tabs Are Below

Learn To Read Tab
Chords Handbook
Corrections & Additions
Get Official Tab
RHCP tabs @ 911Tabs

Parallel Universe

by Red Hot Chili Peppers

from Californication

 

tabbed by Val Nalini

 

Verse riff (also intro and outro)

 

|-5-5-5-5-5-5-5-5-5-5-5-5-5-5-5-5-3-3-3-3-3-3-3-3-3-3-3-3-3-3-3-3-7-7-7-7-7-7-7-7--|

|----------------------------------------------------------------------------------|

|----------------------------------------------------------------------------------|

|----------------------------------------------------------------------------------|

 

|-8-8-8-8-8-8-8-8-0-0-0-0-0-0-0-0-12-12-10-10-8-8-7-7-|

|-----------------------------------------------------|

|-----------------------------------------------------|

|-----------------------------------------------------|

 

Chorus

2x

|-5--5--5-5----------8--8---0--0-0-0--0--0-0--|

|------------6--6-6---------------------------|

|---------------------------------------------|

|---------------------------------------------|

 

Interlude

8x

|-5-5-5-5--------------------------|

|---------5-5-5-5-6-6-6-6-3-3-3-3--|

|----------------------------------|

|----------------------------------|

 

This is the sequence of the song:

 

verse

chorus

verse

chorus x2

interlude

verse

chorus x2

verse (this time played as outro)

 

 

 

 

Return to my Red Hot Chili Peppers bass tabs page

The Tablature is Copyright its respective owners.

Sign Up For My Newsletter
Subscribe | Unsubscribe

Site Map | Disclaimer | Privacy Policy | Media Kit | Submissions/Corrections

Website © 2000-2014 mattsmusicpage.com. All rights reserved.

Legal & DMCA: Matt's Music Page has been providing lyrics and tabs in a legal way, paying royalties each year to a few organizations. Then, all lyrics and tabs were removed from the site. Now, there's a new owner to the site, which purchased it August 26, 2014, and he is in negotiation to obtain licensing from BMI at the moment. If you have a specific DMCA request -- please do not hesitate to contact me via the contact button on top. I will do my very best to keep this site fully legal.

Get our toolbar!