Your One-Stop Source For
Music Lyrics
Bass and Guitar Tabs
and More...
Music Lyrics Bass and Guitar Tabs

 

The Tabs Are Below

Learn To Read Tab
Chords Handbook
Corrections & Additions
Get Official Tab
RHCP tabs @ 911Tabs

Otherside

by Red Hot Chili Peppers

from Californication

 

Tabbed by Val Nalini

 

Chorus (How long, how loooong...)

 

|------------------------------------------------------------|

|------------------------------------------------------------|

|----------------3-3-3---------------------3-3-3-----3-2-----|

|-5-5-5--1--1-1---------3-3---5-5---1-1-1----------3-----3---|

 

Verse (I heard your voice...)

4x variation:

|---------------------| |--------------------|

|---------------------| |--------------------|

|------------/7-7-7-7-| |-----------/7---7-7-|

|-5-5-5-5-5-----------| |-5-5-5-5-5----0-----|

 

...take it on the otherside

|---------|

|---------|

|---------|

|-3----5--|

 

Take it on, take it on

|-------------------------------------------|

|-------------------------------------------|

|------10-10-10-10--------------------------|

|-3-3---------------5--5--5-0-5-0-5-0-5-0---|

 

Interlude

1. 2.

|------------------------------------|---------|---------------|

|------------------------------------|-5--4--0-|-5-4-2-4-5-4-2-|

|----7-5-7----7-5-7---0-2-3-3-2-3--3-|---------|---------------|

|-0---------0-------3----------------|---------|---------------|

3. 4.

|---------|---------|

|-5--4--0-|-5--4--2-|

|---------|---------|

|---------|---------|

 

Then play chorus, but finally play this:

 

|--------------------------------------------------------------------|

|--------------------------------------------------------------------|

|----------------3-3-3-------------------7-8-8-8--3--3-3--10-10-10---|

|-5-5-5--1--1-1--------3-3--0-3-4-5--5-5----------------------------5|

 

Corrections at nalini@intercity.itt

 

 

 

Return to my Red Hot Chili Peppers bass tabs page

The Tablature is Copyright its respective owners.

Sign Up For My Newsletter
Subscribe | Unsubscribe

Site Map | Disclaimer | Privacy Policy | Media Kit | Submissions/Corrections

Website © 2000-2014 mattsmusicpage.com. All rights reserved.

Legal & DMCA: Matt's Music Page has been providing lyrics and tabs in a legal way, paying royalties each year to a few organizations. Then, all lyrics and tabs were removed from the site. Now, there's a new owner to the site, which purchased it August 26, 2014, and he is in negotiation to obtain licensing from BMI at the moment. If you have a specific DMCA request -- please do not hesitate to contact me via the contact button on top. I will do my very best to keep this site fully legal.

Get our toolbar!