Your One-Stop Source For
Music Lyrics
Bass and Guitar Tabs
and More...
Music Lyrics Bass and Guitar Tabs

 

The Tabs Are Below

Learn To Read Tab
Chords Handbook
Corrections & Additions
Get Official Tab
RHCP tabs @ 911Tabs

Song : Organic anti-beatbox band

Band : Red Hot Chili Peppers

 

Verse

G------------------------------|-----------|-------|-----------|

D-------2--2--5---7------2---2-|----5---7--|-------|----7---5--|

A------------------------------|-----------|-------|-----------|

E-00--0--0------3---00-0--0----|-33---55---|-6-5-3-|-55---33---|

 

Verse fill 1

G-----------|

D----5---7--|

A-----------|

E-33---55---|

 

Verse fill 2

G-------|

D-------|

A-------|

E-6-5-3-|

 

Verse fill 3

G-----------|

D----7---5--|

A-----------|

E-55---33---|

 

Chorus

G----4-4-4-------4-4-4-------4-4-4-------4-4-4--------------------------------|

D-----------------------------------------------------------------------------|

A-2--------2--2--------2--2--------2--2--------5--5--4-5--7---5-7-7-5-7-7-5-7-|

E-----------------------------------------------------------------------------|

 

Solo

G--------------------------|

D-4--2---------------------|

A-------5--4--2-------2----| x3

E----------------5-5-----3-|

 

 

Return to my Red Hot Chili Peppers bass tabs page

The Tablature is Copyright its respective owners.

Sign Up For My Newsletter
Subscribe | Unsubscribe

Site Map | Disclaimer | Privacy Policy | Media Kit | Submissions/Corrections

Website © 2000-2014 mattsmusicpage.com. All rights reserved.

Legal & DMCA: Matt's Music Page has been providing lyrics and tabs in a legal way, paying royalties each year to a few organizations. Then, all lyrics and tabs were removed from the site. Now, there's a new owner to the site, which purchased it August 26, 2014, and he is in negotiation to obtain licensing from BMI at the moment. If you have a specific DMCA request -- please do not hesitate to contact me via the contact button on top. I will do my very best to keep this site fully legal.

Get our toolbar!