Your One-Stop Source For
Music Lyrics
Bass and Guitar Tabs
and More...
Music Lyrics Bass and Guitar Tabs

 

The Tabs Are Below

Learn To Read Tab
Chords Handbook
Corrections & Additions
Get Official Tab
RHCP tabs @ 911Tabs

I Like Dirt

Red Hot Chili Peppers

Californication

Warner Bro.’s

Basically the whole song is played in staccato

So keep it short and sweet m’dears!

 

Intro

G-|---------||

D-|---------||

A-|---------||

E-|--5--7---||

 

Main Riff

G-|---------------------|-------------------------||

D-|-----9-------9-X-7-9-|-----9-------9-X-7-8-9---||

A-|---------------------|-------------------------||

E-|-5-7---X—5/7---------|-5-7---X-5-7-------------||

 

Chorus

G-|-----------------||

D-|-----------------||

A-|-5-------5-------||

E-|---7-7-X---7-7---||

 

I like dirt…

 

Interlude

G-|----------|-------------------||

D-|----------|-10----8---6---8---||

A-|----------|----10---8---6---8-||

E-|-8---8-8--|-------------------||

 

This bit is crap, so

Don’t pay to much attention

To what I’ve got, it’s not

Even close in my view

 

Guitar Solo

G-|------||

D-|------||

A-|-5-7--||

E-|------||

 

Some Variations (tack on end of main riff now and again)

G-|-------------------||-----------||-------------||

D-|-9-7---------------||-7---------||-9-9---------||

A-|-----9-7-9-5h7-----||---9-7-5h7-||-----7-7-----||

E-|---------------7---||-----------||---------9-9-||

 

The variation bit is pretty easy, just fuck around with

the following notes, improv, whatever!~

G-|-----------------||

D-|-9-7-------------||

A-|-----9-7-5-7-----||

E-|-------------7-5-||

 

tabbed by

Matt! Beck

uplift_mofo@hotmail.com

 

 

 

Return to my Red Hot Chili Peppers bass tabs page

The Tablature is Copyright its respective owners.

Sign Up For My Newsletter
Subscribe | Unsubscribe

Site Map | Disclaimer | Privacy Policy | Media Kit | Submissions/Corrections

Website © 2000-2014 mattsmusicpage.com. All rights reserved.

Legal & DMCA: Matt's Music Page has been providing lyrics and tabs in a legal way, paying royalties each year to a few organizations. Then, all lyrics and tabs were removed from the site. Now, there's a new owner to the site, which purchased it August 26, 2014, and he is in negotiation to obtain licensing from BMI at the moment. If you have a specific DMCA request -- please do not hesitate to contact me via the contact button on top. I will do my very best to keep this site fully legal.

Get our toolbar!