Your One-Stop Source For
Music Lyrics
Bass and Guitar Tabs
and More...
Music Lyrics Bass and Guitar Tabs

 

The Tabs Are Below

Learn To Read Tab
Chords Handbook
Corrections & Additions
Get Official Tab
RHCP tabs @ 911Tabs

Red Hot Chili Peppers – Havana Affair

Tabbed by: sinniecoyote

 

 

Intro

G|--------14------------14-----|

D|-9---12--------9---12---12---|

A|-----------12-------------12-|

E|-----------------------------|

 

Verse 1

G|-------------------------------------------------------------|

D|-------------------------------------------------------------|

A|-2---4-5----5-4--------2-4-------0-2---245---5/7--5------2---|

E|---------3------7-5--5-----2-222-----------3--------5--5---2-|

 

Chorus 1

G|--------------------------|

D|-----------------5/7------|

A|----------------5----7----|

E|-2-3---3-2---2-3------532-|

 

Verse 2

G|---4---4-------4---4---7------------------------------------------------------------------|

D|---------5--4--------5---4----------------------------------------------------------------|

A|----------------------------2---4-5----5-4--------2-4-------0-2---5-4---5/7--5------------|

E|-2----------------------------------3------7-5--5-----2-222-----------3--------7-5--5-3-2-|

 

Chorus 2

G|--------------------------|

D|-----------------5/7------|

A|----------------5----7----|

E|-2-3---3-2---2-3------532-|

 

Interlude 1

G|---------------------11---11--------------------------------------------------------------|

D|----9---9----12----9----9-------12--------------------------------------------------------|

A|-/9-------10----9------------10----9-----------5-7----------5-7----------5-7----------5-7-|

E|--------------------------------------5h777-77-----5h777-77-----5h777-77-----5h777-77-----|

 

Verse 3

G|---------------------------------------------------------------|

D|---------------------------------------------------------------|

A|-2---4-5----5-4--------2-4-------0-2---245---5/7--5--------2---|

E|---------3------7-5--5-----2-222-----------3--------7-5--5---2-|

 

Chorus 3

G|---------------------------|

D|-----5/7------------5------|

A|----5----7---------5-------|

E|-2-3------532---2-3----532-|

 

Interlude 2

G|---------------------111111------------------------------------------------------------7-9-|

D|----9---9----12----9--------9----12--------------------------------------------------------|

A|-/9-------10----9-------------10----9-----------5-7----------5-7----------5-7--------------|

E|---------------------------------------5h777-77-----5h777-77-----5h777-77-----5h777-77-----|

The note “...-111111-...” is 11 (eleven) played three times...

 

Verse 4

G|---------------------------------------------------------------|

D|---------------------------------------------------------------|

A|-2---4-5----5-4-----/7-5-----------0-2---4-5----5-4--------2---|

E|---------3------7-5------7-532-2222----------3------7-5--5---2-|

 

Chorus 4

G|-------------------------12/14---------|

D|-----------------------12------14------|

A|--(9)-10---10-9----9-10----------12109-|

E|-X---X------------9--------------------|

 

Outro

G|--------------------111111----------------|

D|---9---9----12----9--------9----12----9---|

A|-9-------10----9-------------10----9------|

E|------------------------------------------|

 

 

Return to my Red Hot Chili Peppers bass tabs page

The Tablature is Copyright its respective owners.

Sign Up For My Newsletter
Subscribe | Unsubscribe

Site Map | Disclaimer | Privacy Policy | Media Kit | Submissions/Corrections

Website © 2000-2014 mattsmusicpage.com. All rights reserved.

Legal & DMCA: Matt's Music Page has been providing lyrics and tabs in a legal way, paying royalties each year to a few organizations. Then, all lyrics and tabs were removed from the site. Now, there's a new owner to the site, which purchased it August 26, 2014, and he is in negotiation to obtain licensing from BMI at the moment. If you have a specific DMCA request -- please do not hesitate to contact me via the contact button on top. I will do my very best to keep this site fully legal.

Get our toolbar!

 

Hard Rock Pin Las Vegas 4th of july red white and blue guitar
$5.0
Hard Rock Pin Las Vegas 4th of july red white and blue guitar picture


Hard Rock Pin Hollywood Fl Bell Girl with dice luggage and guitar
$5.0
Hard Rock Pin Hollywood Fl Bell Girl with dice luggage and guitar picture


Hard Rock Pin Las Vegas King of Clubs Guitar rare only 3 lines of info on back
$5.0
Hard Rock Pin Las Vegas King of Clubs Guitar rare only 3 lines of info on back picture


Hard Rock Pin Edmonton guitar pin
$5.0
Hard Rock Pin Edmonton guitar pin picture


Lladro Guitar Boy #4614 - Beautiful Piece of Lladro
$109.0
Lladro Guitar Boy #4614 - Beautiful Piece of Lladro picture