Your One-Stop Source For
Music Lyrics
Bass and Guitar Tabs
and More...
Music Lyrics Bass and Guitar Tabs

 

The Tabs Are Below

Learn To Read Tab
Chords Handbook
Corrections & Additions
Get Official Tab
RHCP tabs @ 911Tabs

Get On Top

By the Red Hot Chili Peppers

>From the album Californication

 

Verse 1

G|--------9-9-7------------9-9-7-----------9-9-7-------------9-9-7-------------------| (x3)

D|-------------------------------------------------------------------7-7-7-8-8-9-10--|

A|-----------------------------------------------------------------------------------|

E|--0-0-x-------0-0---0-0-x-------0---0-0-x------0-0---0-0-x-------0-----------------|

s s s s s s s s s s s s s s s s s s

 

Chorus 1

G|----------------------------------| (x4)

D|--7--5/7--5/7--5/7--5/7--5h7p5h7--|

A|----------------------------------|

E|----------------------------------|

 

G|---------------9-9-9---9--|

D|--7--5/7--5/7-------------|

A|--------------------------|

E|--------------------------|

 

Verse 2 (same as Verse 1)

 

Chorus 2 (same as Chorus 1)

 

Interlude

G-|------7---7-------7-------7----| (x8)

D-|-------------------------------|

A-|--5-x---x---5--/7---7--/8---8--|

E-|-------------------------------|

s s p s p s s p s s p s

 

G-|------------------------------5---5----5---5---5--

D-|------8---8----8---8---8--------------------------

A-|--------------------------3-x---x---3----x---x----

E-|--6-x---x---6----x---x----------------------------

s s p s p s p s p s p s s p s p s p s p s p

 

G-|------7---7-------7-------7--------9---9----9---9---9--

D-|-------------------------------------------------------

A-|--5-x---x---5--/7---7--/8---8--7-x---x---7----x---x----

E-|-------------------------------------------------------

s s p s p s s p s s p s s s p s p s p s p s p

 

G-|-------------------------------------------------------

D-|------8---8----8---8---8------10---10----10---10-------

A-|-------------------------------------------------------

E-|--6-x---x---6----x---x----8-x----x----8-----x-----8\5--

s s p s p s p s p s p s s p s p s p s p s

 

G-|------------------------------------------|

D-|------7---7----7---7----------------------|

A-|------------------------------------------|

E-|--5-x---x---5----5----5----7----7----7----|

s s p s p s p s p s s s s

 

Verse 3 (same as Verse 1)

 

 

 

 

 

Return to my Red Hot Chili Peppers bass tabs page

The Tablature is Copyright its respective owners.

Sign Up For My Newsletter
Subscribe | Unsubscribe

Site Map | Disclaimer | Privacy Policy | Media Kit | Submissions/Corrections

Website © 2000-2014 mattsmusicpage.com. All rights reserved.

Legal & DMCA: Matt's Music Page has been providing lyrics and tabs in a legal way, paying royalties each year to a few organizations. Then, all lyrics and tabs were removed from the site. Now, there's a new owner to the site, which purchased it August 26, 2014, and he is in negotiation to obtain licensing from BMI at the moment. If you have a specific DMCA request -- please do not hesitate to contact me via the contact button on top. I will do my very best to keep this site fully legal.

Get our toolbar!