Your One-Stop Source For
Music Lyrics
Bass and Guitar Tabs
and More...
Music Lyrics Bass and Guitar Tabs

 

The Tabs Are Below

Learn To Read Tab
Chords Handbook
Corrections & Additions
Get Official Tab
RHCP tabs @ 911Tabs

Red Hot Chili Peppers

 

Emit Remmus

from Californication

 

transcribed by Valerio Nalini

 

Verse

|----------------------------------------------------|

|----------------------------------------------------|

|--6-8-8-11p10h11p10h11----6-8-8-11p10h11p10h11--1---|

|----------------------------------------------------|

 

Chorus

|-------------------------------------------|

|-------------------------------------------|

|--6--8-8-8--11-11-----6--8-8-8--11-11-1----|

|-------------------------------------------|

 

Interlude (cuss me out and it'll be all right...)

|------------------------------------------------|

|------------------------------------------------|

|-3-3-3--3-3--------------1-1-1--1-1-------------|

|-------------4-4-4--4-4--------------1-1-1--1-1-|

 

|----------------------------------------------------|

|----------------------------------------------------|

|-3-3--5-5-6-6-3------6-5-3----1-1-1--1--------------|

|------------------4---------------------1-1-1--1-1--|

 

|----------------------------------------------|

|----------------------------------------------|

|-3--5-6-8-6-5------6-5-3---1--1-1-------------|

|---------------4-4----------------1-1-1--1----|

 

|-----------------------------------------------------|

|-----------------------------------------------------|

|-3-3--5-5-6-6-3---------------1-1-1-1--1-------------|

|-----------------4-4-4--4-4---------------1-1-1--1-1-|

 

Ending

|-----------------------|

|-----------------------|

|-6--8-8-8--11-11--15\--|

|-----------------------|

 

For any correction or if you have other tabs from Californication please e-mail me at

nalini@intercity.it

 

 

 

 

Return to my Red Hot Chili Peppers bass tabs page

The Tablature is Copyright its respective owners.

Sign Up For My Newsletter
Subscribe | Unsubscribe

Site Map | Disclaimer | Privacy Policy | Media Kit | Submissions/Corrections

Website © 2000-2014 mattsmusicpage.com. All rights reserved.

Legal & DMCA: Matt's Music Page has been providing lyrics and tabs in a legal way, paying royalties each year to a few organizations. Then, all lyrics and tabs were removed from the site. Now, there's a new owner to the site, which purchased it August 26, 2014, and he is in negotiation to obtain licensing from BMI at the moment. If you have a specific DMCA request -- please do not hesitate to contact me via the contact button on top. I will do my very best to keep this site fully legal.

Get our toolbar!

 

Hard Rock Pin Las Vegas 4th of july red white and blue guitar
$5.0
Hard Rock Pin Las Vegas 4th of july red white and blue guitar picture


Hard Rock Pin Hollywood Fl Bell Girl with dice luggage and guitar
$5.0
Hard Rock Pin Hollywood Fl Bell Girl with dice luggage and guitar picture


Hard Rock Pin Las Vegas King of Clubs Guitar rare only 3 lines of info on back
$5.0
Hard Rock Pin Las Vegas King of Clubs Guitar rare only 3 lines of info on back picture


Hard Rock Pin Edmonton guitar pin
$5.0
Hard Rock Pin Edmonton guitar pin picture


Lladro Guitar Boy #4614 - Beautiful Piece of Lladro
$109.0
Lladro Guitar Boy #4614 - Beautiful Piece of Lladro picture