Your One-Stop Source For
Music Lyrics
Bass and Guitar Tabs
and More...
Music Lyrics Bass and Guitar Tabs

 

The Tabs Are Below

Learn To Read Tab
Chords Handbook
Corrections & Additions
Get Official Tab
RHCP tabs @ 911Tabs

Easily

By the Red Hot Chili Peppers

>From the album Californication

 

Verse:

G-|---------------|---------------|-------------5---|---------------|

D-|-------------3-|-------------3-|-5-3--3--3-3-----|-------5---5---|

A-|-----------3---|-5--5--5-5-5---|-----------------|---5h7---7---7-|

E-|-5--5--5-5-----|---------------|---------------5-|-5-------------|

 

Chorus:

G-|-----5--------5---|------------------|

D-|-------5--------5-|-----5--------3---|

A-|-3-3------3-3-----|-------5--------3-|

E-|------------------|-3-3------1-1-----|

 

G-|------------------|------------------|

D-|-----7--------7---|-----5--------3---|

A-|-------7--------7-|-------5--------3-|

E-|-5-5------5-5-----|-3-3------1-1-----|

 

 

 

 

Return to my Red Hot Chili Peppers bass tabs page

The Tablature is Copyright its respective owners.

Sign Up For My Newsletter
Subscribe | Unsubscribe

Site Map | Disclaimer | Privacy Policy | Media Kit | Submissions/Corrections

Website © 2000-2014 mattsmusicpage.com. All rights reserved.

Legal & DMCA: Matt's Music Page has been providing lyrics and tabs in a legal way, paying royalties each year to a few organizations. Then, all lyrics and tabs were removed from the site. Now, there's a new owner to the site, which purchased it August 26, 2014, and he is in negotiation to obtain licensing from BMI at the moment. If you have a specific DMCA request -- please do not hesitate to contact me via the contact button on top. I will do my very best to keep this site fully legal.

Get our toolbar!