Your One-Stop Source For
Music Lyrics
Bass and Guitar Tabs
and More...
Music Lyrics Bass and Guitar Tabs

 

The Tabs Are Below

Learn To Read Tab
Chords Handbook
Corrections & Additions
Get Official Tab
RHCP tabs @ 911Tabs

Californication

by the Red Hot Chili Peppers

from Californication

tabbed by Val Nalini

 

Intro and verse:

|------9--9-7h9p7-5-|------7--7-5--|------9--9-7h9p7-5-|------10--10-7--|

|-7--7--------------|--------------|-7--7--------------|----------------|

|-------------------|-8--8---------|-------------------|-8--8-----------|

|-------------------|--------------|-------------------|----------------|

 

End of verse:

|-5-5-5-5-------------------------|

|---------5-5-5-5-3-3-3-3---------|

|-------------------------5-5-5-5-|

|---------------------------------|

 

Pre-Chorus:

|------------------------------------------|

|-7--7--7-7-7-7-9-10---------------10-9----|

|--------------------8--8--8-8-8-8------10-|

|------------------------------------------|

 

That's the principal riff. Then there are some variations. Here are some.

 

|---------------------------------------------------|

|-7--7--7-7-7-7-7-9-10-------------/14-14-12-10-9---|

|-----------------------8--8--8-8-------------------|

|---------------------------------------------------|

 

|-----------------------------------------------|

|-7--7--7-7-7-7-7-9-10--------------------------|

|-----------------------8--8--7-7-5-5-5--3--2---|

|-----------------------------------------------|

 

|-------------------------------------------------|

|-7--7--7-7-7-7-7-9-10-------------/10-10-9-7-5---|

|-----------------------8--8--8-8-----------------|

|-------------------------------------------------|

 

Chorus:

|----------------------------|---------------------|

|----------------------------|---------------------|

|-3--3--3-----------5--5-----|-3--3--3--------3--5-|

|----------3--3--3-------5-5-|----------3--5-------|

 

Variations

|----------------------------|---------------------------------|

|----------------------------|---------------------------------|

|-3--3--3-----------5--7-----|-3-3-5-3-------3--5--5---5---5-5-|

|----------3--3--3-------5-5-|---------3--5----------5---5-----|

 

Guitar solo:

Riff a

|------------------------------------------|

|-4---4--4-4------------4--4--4-4----------|

|-------------5--5-5-5------------5---5-5-5|

|------------------------------------------|

riff b

|-----4---------7--------2------------|-----|

|---4---------7--------2----------2---|-----|

|-2-----2--/5-----5--0-----0----2-----|-0---|

|-----------------------------0-----0-|-----|

 

During the guitar solo play this sequence:

riff a 2x

riff b 2x

riff a 2x

riff b 4x

 

Comments & corrections please at davesaddiction@hotmail.com

 

 

 

 

Return to my Red Hot Chili Peppers bass tabs page

The Tablature is Copyright its respective owners.

Sign Up For My Newsletter
Subscribe | Unsubscribe

Site Map | Disclaimer | Privacy Policy | Media Kit | Submissions/Corrections

Website © 2000-2014 mattsmusicpage.com. All rights reserved.

Legal & DMCA: Matt's Music Page has been providing lyrics and tabs in a legal way, paying royalties each year to a few organizations. Then, all lyrics and tabs were removed from the site. Now, there's a new owner to the site, which purchased it August 26, 2014, and he is in negotiation to obtain licensing from BMI at the moment. If you have a specific DMCA request -- please do not hesitate to contact me via the contact button on top. I will do my very best to keep this site fully legal.

Get our toolbar!