Your One-Stop Source For
Music Lyrics
Bass and Guitar Tabs
and More...
Music Lyrics Bass and Guitar Tabs

 

The Tabs Are Below

Learn To Read Tab
Chords Handbook
Corrections & Additions
Get Official Tab
RHCP tabs @ 911Tabs

Around the World

By the Red Hot Chili Peppers

>From the album Californication

 

Intro

G|------------------|

D|------------------|

A|------------------|

E|--0------0-0-0-0--|

 

G|--7h9-9-7h9-9-7h9-9-7h9-9-9-7------|--7h9-9-7h9-9-7h9-9-7------------| (x4)

D|------------------------------9-7--|----------------------9-7--------|

A|-----------------------------------|--------------------------7-5----|

E|-----------------------------------|------------------------------7--|

 

Verse 1

G|----10-12-----9-10---10-12------------|----10-12-----9-10---10-12----------------|

D|-------------------------------3-2----|---------------------------------3-2------|

A|-----------------------------------1--|-------------------------------1-----3-1--|

E|--3-------0-1------3-------0-1--------|--3-------0-1------3-------0-1------------|

 

G|----10-12-----9-10---10-12---------|----10-12-----9-10---10-12-------------------|

D|-----------------------------------|---------------------------------------------|

A|---------------------------~3-~5---|-----------------------------1---1-3-5-8-10--|

E|--3-------0-1------3---------------|--3-------0-1------3-------3---3-------------|

 

Chorus 1

G|------13--------------12--12-----10--------------------| (x2)

D|---------10-13-------------------------10------10--10--|

A|--11-----------10--10--------8------11-----------------|

E|------------------------------------------8--8---------|

 

Verse 2

G|----10-12-----9-10---10-12------------|----10-12-----9-10---10-12------------------|

D|-------------------------------3-2----|---------------------------------3-2-3-2-3--|

A|-----------------------------------1--|-------------------------------1------------|

E|--3-------0-1------3-------0-1--------|--3-------0-1------3-------0-1--------------|

 

G|----10-12-----9-10---10-12--------|----10-12-----9-10---10-12-------------------|

D|----------------------------------|---------------------------------------------|

A|--------------------------~3-~5---|-----------------------------1---1-3-5-8-10--|

E|--3-------0-1------3--------------|--3-------0-1------3-------3---3-------------|

 

Chorus 2 (Same as Chorus 1)

 

Intro (Second & Third bar of Intro, but 4 times instead of 2)

 

"Bridge"

G|----10-12-----9-10---10-12--------------|

D|----------------------------12-10-------|

A|--------------------------------12-10~--|

E|--3-------0-1------3--------------------|

 

Verse 3 (Same as Verse 1)

 

Chorus 3 (Same as Chorus 1 with some variations, but 4 times)

 

Ending

G|-------------------|

D|--2-3-2------------|

A|--------5-5-5-5-5--|

E|-------------------|

 

G|-------------------------| (x13)

D|--------2-3-2------------|

A|----3---------5-5-5-5-5--|

E|--5---5------------------|

 

Last 2 Bars

G|------------------------------|-------------------------------|

D|--------2-3-2-----------------|--------2-3-2------------------|

A|----3---------5-/10-10-10-10--|----3---------5-/12-12-12-12\--|

E|--5---5-----------------------|--5---5------------------------|

 

 

 

 

Return to my Red Hot Chili Peppers bass tabs page

The Tablature is Copyright its respective owners.

Sign Up For My Newsletter
Subscribe | Unsubscribe

Site Map | Disclaimer | Privacy Policy | Media Kit | Submissions/Corrections

Website © 2000-2014 mattsmusicpage.com. All rights reserved.

Legal & DMCA: Matt's Music Page has been providing lyrics and tabs in a legal way, paying royalties each year to a few organizations. Then, all lyrics and tabs were removed from the site. Now, there's a new owner to the site, which purchased it August 26, 2014, and he is in negotiation to obtain licensing from BMI at the moment. If you have a specific DMCA request -- please do not hesitate to contact me via the contact button on top. I will do my very best to keep this site fully legal.

Get our toolbar!

 

BRAND NEW KEY OF C HOHNER MINI HARMONICA HARP KEYRING KEYCHAIN KEY RING CHAIN
$8.21
BRAND NEW KEY OF C HOHNER MINI HARMONICA HARP KEYRING KEYCHAIN KEY RING CHAIN picture


RISING SONS BAND *2X3 FRIDGE MAGNET* VOCALS GUITAR MANDOLIN DOBRO HARMONICA SONG
$3.99
RISING SONS BAND *2X3 FRIDGE MAGNET* VOCALS GUITAR MANDOLIN DOBRO HARMONICA SONG picture


Vtg Christmas Angel Baby Girl W Harmonica Boy W Book SET OF 2 W GOLD WINGS
$125.0
Vtg Christmas Angel Baby Girl W Harmonica Boy W Book SET OF 2 W GOLD WINGS  picture


Beautiful Hand Carved Jewelry Trinket Jewelry Box Harmonica Case Bone And Brass
$14.5
Beautiful Hand Carved Jewelry Trinket Jewelry Box Harmonica Case Bone And Brass picture


BRAND NEW* HOHNER BOB DYLAN SIGNATURE LIMITED EDITION HARMONICA COLLECTORS ITEM
$140.19
BRAND NEW* HOHNER BOB DYLAN SIGNATURE LIMITED EDITION HARMONICA COLLECTORS ITEM picture