Your One-Stop Source For
Music Lyrics
Bass and Guitar Tabs
and More...
Music Lyrics Bass and Guitar Tabs

 

The Red Hot Chili Peppers Guitar Tabs Are Below

Learn To Read Tab
Chords Handbook
Corrections & Additions
Get Official Tab
RHCP tabs @ 911Tabs

Intro & verse (Fig. 1):

(Using the volume knob, volume Swell [listen to the song if trouble understanding])

*Heavy Reverb*

E--------5--------7--------9--------7--------|(x2)

B--------7--------8-------10--------8--------|

G--------7--------7--------9--------7--------|

D--------0--------0--------0--------0--------|

A--------------------------------------------|

E--------------------------------------------|

 

Pre Chorus (Fig. 2):

(Same as the intro and verse using the volume knob)

*Heavy Reverb*

E--------10--------9--------7--------5-------|(x2)

B--------10-------10--------8--------7-------|

G--------11--------9--------7--------7-------|

D---------0--------0--------0--------0-------|

A--------------------------------------------|

E--------------------------------------------|

 

Chorus (Fig. 3):

(Chords, the volume swell is not used here)

*Reverb off*

E-----7--7----7-------------------7---7-----7--|(x2)

B-----7--7----7-------------------8---8-----8--|

G-----7--7----7-------------------9---9-----9--|

D-----9--9----9-------------------9---9-----9--|

A-----9--9----9-------------------7---7-----7--|

E-----7--7----7--------------------------------|

 

 

Verse/Fig. 1 x2

Pre chorus/Fig. 2 x2

Chorus/Fig. 3 x2

 

Interlude:

Basically all it is is 14 on the high E played with hold bends and bend release bend release parts.

 

Verse/Fig. 1 (x1)

 

Bridge:

 

(Using the volume swell)

*Heavy Reverb*

Riff A

E------------------------------------------------------------|

B-----12---------10------------------------------------------|

G---------------------------7---------9b(whammy at bend peak)|

D------------------------------------------------------------|

A------------------------------------------------------------|

E------------------------------------------------------------|

 

(Short volume swells, listen to song to perfect it)

Riff B part 1.

E-----------10----------------------10----14----12-|

B-----12----------------10----12-------------------|

G-----------------11-------------------------------|

D--------------------------------------------------|

A--------------------------------------------------|

E--------------------------------------------------|

 

Riff B part 2.

E-----------10-----------------------------------|

B-----12----------------10-----------------------|

G-----------------11-----------11~~~~~~~---------|

D------------------------------------------------|

A------------------------------------------------|

E------------------------------------------------|

 

Riff A (x2)

Riff B part 1 & 2.

 

Chorus (x4)

 

Solo:

(will be posted shortly)

Return to my Red Hot Chili Peppers Guitar Tabs page

The Tablature is Copyright its respective owners.

Sign Up For My Newsletter
Subscribe | Unsubscribe

Site Map | Disclaimer | Privacy Policy | Media Kit | Submissions/Corrections

Website © 2000-2014 mattsmusicpage.com. All rights reserved.

Get our toolbar!