Your One-Stop Source For
Music Lyrics
Bass and Guitar Tabs
and More...
Music Lyrics Bass and Guitar Tabs

 

The Tabs Are Below

Learn To Read Tab
Chords Handbook
Corrections & Additions
Get Official Tab
Rancid tabs @ 911Tabs

 

Rancid

The Way I Feel

 

--------------------------------------------------------------------------------

 

F G C F* E D B A F#

e---X----X----X----X----X----X----X----X----X----

B---X----X----X----X----X----X----X----2----X----

G---X----X----5----10---9----7----4----2----X----

D---3----5----5----10---9----7----4----2----4----

A---3----5----3----8----7----5----2----0----4----

E---1----3----X----X----X----X----X----X----2----

 

F* E D C B A

 

F# G F# G F# G F# G

 

e-------------------------------------------

B-5-5-5-9-5-5-5-5-5-9-5-5-5-4-0-0-0-4-5-4-0-

G-------------------------------------------

D-------------------------------------------

A-------------------------------------------

E-------------------------------------------

 

C

 

F C G C

Pick me back up just to throw me back down

 

F C G

Apologies too late when you're up against the wall

 

F C G C

Compassion heals while duplicity kills

 

G... G...

You say that I'm different you say that I'm different

 

F... C

The only thing different is the way I feel about you

 

C G

Na na na na na na na na na na na

 

F C G C

You moved up the ladder at a very rapid speed

 

F C G

We moved methodically and calmly

 

F C G C

When you got to the top you saw enemies

 

G... G...

You say that I'm different you say that I'm different

 

F... C

The only thing different is the way I feel about you

 

C G

Na na na na na na na na na na na

 

F* E D C B A

 

F# G F# G F# G F# G

 

e-------------------------------------------

B-5-5-5-9-5-5-5-5-5-9-5-5-5-4-0-0-0-4-5-4-0-

G-------------------------------------------

D-------------------------------------------

A-------------------------------------------

E-------------------------------------------

C

 

F C G C

If I knew then what I know now

 

F C G C

That it would all turn out like this

 

F C G C

I'd sit back and I'd watch you squirm

 

G... G...

You say that I'm different you say that I'm different

 

F... C

The only thing different is the way I feel about you

 

C G

Na na na na na na na na na na na

 

F* E D C B A G

 

 

 

Return to my to my Rancid tabs page

The Tablature is Copyright its respective owners.

Sign Up For My Newsletter
Subscribe | Unsubscribe

Site Map | Disclaimer | Privacy Policy | Media Kit | Submissions/Corrections

Website © 2000-2014 mattsmusicpage.com. All rights reserved.

Get our toolbar!