Your One-Stop Source For
Music Lyrics
Bass and Guitar Tabs
and More...
>Music Lyrics Bass and Guitar Tabs

 

The Tabs Are Below

Learn To Read Tab
Chords Handbook
Corrections & Additions
Get Official Tab
Rancid tabs @ 911Tabs

well all i have to say is, rancid is the best the band that ever ROCKED this earth

 

 

c d c d a

e-------2-2-2-------2-2-2--------------------------

b-1-1---3-3-3---1-1-3-3-3--2-2-2-2-2-2-------------

g-------2-2-2-------2-2-2--2-2-2-2-2-2-------------

d-2-2-----------2-2--------2-2-2-2-2-2-------------

a-3-3-----------3-3--------------------------------

e-------------------------------------------------- reapeat until 'dont ever try...'

f g e

e-1----1-------------------------------------------

b-1----1---------2---------------------------------

g-2--------------2-------------------------------

d-3----------2---2--------------------------------

a-3----2-----2------------------------------------

e-1--- 3-----0-------------------------------------

 

e-----5----5---5--------------------------this same riff is in 'dope sick girl'

b-5h8---5h8-5h8--(reapeat twice)---------

g--------------------------------------------------

d--------------------------------------------------

a--------------------------------------------------

e--------------------------------------------------

 

 

e--------------------------------------------------

b--------------------------------------------------

g-5-5---7-5-5--7-----------------------------------

d-5-5---7-5-5--7-7-7----------------------------

a-3-3---5-3-3--5-7-7------------------------------

e----------------5-5-------------------------------

 

e--------------------------------------------------

b--------------------------------------------------

g--------------------------------------------------

d-3----5---2-----------7---------------------------

a-3----5---2-----------7-------------------------

e-1----3---0---3bent---5--------------------------

 

 

yeah thats basicly it.......... idk the solo yet go ahead and email me if ya feel like it at rancid7@hotmail.com

 

Return to my to my Rancid tabs page

The Tablature is Copyright its respective owners.

Sign Up For My Newsletter
Subscribe | Unsubscribe

Site Map | Disclaimer | Privacy Policy | Media Kit | Submissions/Corrections

Website © 2000-2014 mattsmusicpage.com. All rights reserved.

Legal & DMCA: Matt's Music Page has been providing lyrics and tabs in a legal way, paying royalties each year to a few organizations. Then, all lyrics and tabs were removed from the site. Now, there's a new owner to the site, which purchased it August 26, 2014, and he is in negotiation to obtain licensing from BMI at the moment. If you have a specific DMCA request -- please do not hesitate to contact me via the contact button on top. I will do my very best to keep this site fully legal.

Get our toolbar!

 

Willits Musical Carolsel group 2 #1528 single horse ceramic top & horse move VTG
$13.99
Willits Musical Carolsel group 2 #1528 single horse ceramic top & horse move VTG picture


Vintage Cherished Teddies Musical Snowglobe Enesco "O Tannebaum" 1997
$9.99
Vintage Cherished Teddies Musical Snowglobe Enesco


Vintage Deco musical Silver and blue Vanity powder box Large
$15.0
Vintage Deco  musical Silver and blue Vanity powder  box Large picture


SPANIEL MOTHER DOG & HER PUPPY~VTG MUSIC BOX PLAYS "ARE YOU LONESOME TONITE"
$4.99
 SPANIEL MOTHER DOG & HER PUPPY~VTG MUSIC BOX PLAYS


Vintage Made In Japan Walt Disney Mickey Mouse w/ Piano Music Box (T2B15)
$75.0
Vintage Made In Japan Walt Disney Mickey Mouse w/ Piano Music Box (T2B15) picture