Your One-Stop Source For
Music Lyrics
Bass and Guitar Tabs
and More...
Music Lyrics Bass and Guitar Tabs

 

The Tabs Are Below

Learn To Read Tab
Chords Handbook
Corrections & Additions
Get Official Tab
Rancid tabs @ 911Tabs

 

Rancid

TURNTABLE

 

F G C# C D D#

e----X----X----X---X----X----X----

B---X----X----X---X----X----X----

G---X---X----6----5-----7-----8----

D---3----5----6----5-----7-----8----

A---3----5----4----3-----5-----6----

E---1----3----X----X----X----X----

^ : Bend s : Slide to INTRO:

C

e------------------------------------------

B------------------------------------------

G---5-5-5-5-5-------^-^--------------------

D---5-5-5-5-5-------7-7------------------ REPEAT (x4)

A---3-3-3-3-3------------------------------

E------------------------------------------

VERSE: CC FF G F C (x4)

CHORUS: G F C (x4)

Lead Guitar Played Under the Rhythm in the Chorus:

e--------------------------8-8-8-8-8-8---------

B-----8-8-8----6-6-6---8-8-8-8-8-8---------

G----s7-7-7---s5-5-5-----------------------

D------------------------------------------

A------------------------------------------

E------------------------------------------

BRIDGE: C D# C# D

 

VERSE Under the second time you play the verse tune, one guitar plays: e-----8-8-8-8-8-8-8---------------------------------------8-8-8-8-8-8---- B----8-8-8-8-8-8-8---6-6-6-6-6-6---8-8-8---6-6-6---8-8-8-8-8-8---- G------------------------5-5-5-5-5-5---7-7-7---5-5-5------------------

D-----------------------------------------------------------------

A-----------------------------------------------------------------

E-----------------------------------------------------------------

CHORUS

 

INTRO

 

VERSE (with rhythm on first half, rhythm and lead on second)

 

CHORUS (with rhythm and lead)

 

SOLO:

 

e---------------------------------------------------8-8-8-8-8-8-8-8------

B-----8-8-8-8-8-8-8-8---6-6-6-6-6-6-6-6------------------------

G--------------------------------------------------------------

D--------------------------------------------------------------

A--------------------------------------------------------------

E--------------------------------------------------------------

BRIDGE

 

that's it!!!

 

Tabbed by Derek Carlson

 

 

 

Return to my to my Rancid tabs page

The Tablature is Copyright its respective owners.

Sign Up For My Newsletter
Subscribe | Unsubscribe

Site Map | Disclaimer | Privacy Policy | Media Kit | Submissions/Corrections

Website © 2000-2014 mattsmusicpage.com. All rights reserved.

Legal & DMCA: Matt's Music Page has been providing lyrics and tabs in a legal way, paying royalties each year to a few organizations. Then, all lyrics and tabs were removed from the site. Now, there's a new owner to the site, which purchased it August 26, 2014, and he is in negotiation to obtain licensing from BMI at the moment. If you have a specific DMCA request -- please do not hesitate to contact me via the contact button on top. I will do my very best to keep this site fully legal.

Get our toolbar!