Your One-Stop Source For
Music Lyrics
Bass and Guitar Tabs
and More...
Music Lyrics Bass and Guitar Tabs

 

The Tabs Are Below

Learn To Read Tab
Chords Handbook
Corrections & Additions
Get Official Tab
Rancid tabs @ 911Tabs

 

Rancid

Tenderloin

 

--------------------------------------------------------------------------------

 

G C D

e---X----X----X----

B---X----X----X----

G---X----5----7----

D---5----5----7----

A---5----3----5----

E---3----X----X----

 

INTRO RIFF x2:

note: b=bend

h=hammer on

e-----6b---------------------6-6-6-3-

B-------------4h5-5-5----------------

G-7b------7b----------7b-7-7---------

D------------------------------------

A------------------------------------

E------------------------------------

 

C G

Realize you're dehumanized you

 

C G D

Criticize your existence

 

C G

It's your demise when no sun arise you know

 

C D

Paralyzed by your lack of resistence

 

G D

She knows she is she knows she's going

 

C D

Down the road where the fire's glowing

 

C D G

Tenderloin tenderloin tenderloin

 

G D

She knows she is she knows she's going

 

C D

Down the road where the fire's glowing

 

C D G

Tenderloin tenderloin tenderloin

 

C G

The tricks she gets them she's not a victim

 

C G D

She makes a list of them and reads it all alone

 

C G

For money she's walking down on Larkin

 

C D

In T.A. they're rocking all night long

 

G D

She knows she is she knows she's going

 

C D

Down the road where the fire's glowing

 

C D G

Tenderloin tenderloin tenderloin

 

G D

She knows she is she knows she's going

 

C D

Down the road where the fire's glowing

 

C D G

Tenderloin tenderloin tenderloin

 

(INTRO RIFF)

G

e-----------------------6-6-6-3-

B-----------------------6-6-6-3-

G-(gradual bend)7-7-7-----------

D-------------------------------

A-------------------------------

E-------------------------------

 

 

 

INSERT ALT TEXT undefined More... [Close] [Close]

 

 

 

Return to my to my Rancid tabs page

The Tablature is Copyright its respective owners.

Sign Up For My Newsletter
Subscribe | Unsubscribe

Site Map | Disclaimer | Privacy Policy | Media Kit | Submissions/Corrections

Website © 2000-2014 mattsmusicpage.com. All rights reserved.

Legal & DMCA: Matt's Music Page has been providing lyrics and tabs in a legal way, paying royalties each year to a few organizations. Then, all lyrics and tabs were removed from the site. Now, there's a new owner to the site, which purchased it August 26, 2014, and he is in negotiation to obtain licensing from BMI at the moment. If you have a specific DMCA request -- please do not hesitate to contact me via the contact button on top. I will do my very best to keep this site fully legal.

Get our toolbar!