Your One-Stop Source For
Music Lyrics
Bass and Guitar Tabs
and More...
Music Lyrics Bass and Guitar Tabs

 

The Tabs Are Below

Learn To Read Tab
Chords Handbook
Corrections & Additions
Get Official Tab
Rancid tabs @ 911Tabs

RANCID:Stickin In My Eye 2/2

Album:RANCID/NOFX Split Byo Series 3

I revised the bass intro but I didn't have my guitar with me

so I tabbed it from memory.If there is a problem e-mail me at sexpistols78@hotmail.com

 

A=Guitar 1 B=Guitar 2 A&B=Both By::sexpistols78

Intro 1 (bass arranged for guitar)

e------------------------|-----------------------------------------|

b------------------------|-----------------------------------------|

g------------------------|-----------------------------------------|

d-55-5-55-4-4-55-222-11--|--4/5--5--------7--------5---------------|

a-77-5-55-5-5-33-222-22--|--7~---7--7-6-5---545-3-----3/7-67676----|

E------------------------|--------------------------------------7--|

\ 2x /

 

>------------------------|

>------------------------|

>------------------------|

>-55-5-55-4-4-55-222-11--|

>-77-5-55-5-5-33-222-22--|

>------------------------|

 

Intro 2A (2 times)

e--------------|--------|

b--------------|--------|

g-9-11-12-11-9-|-8-9-11-|

d--------------|--------|

a-7-9--10-9--7-|-6-7-9--|

E--------------|--------|

\ 3x /

 

Intro 2B Guitar 2 *=6x

e----------------------------|

b--*--*----------*--*--------|

g-9--7----*--*--9--7----*--*-|

d-9--7--10--9---9--7--10--9--|

a-7--5--10--9---7--5--10--9--|

E-------8---7---------8---7--|

 

Verse A&B (2x 2nd time no palm mute) #=6x last 5 palm muted

e----------------------------|

b--#--#----------#--#--------|

g-9--7----#--#--9--7----#--#-|

d-9--7--10--9---9--7--10--9--|

a-7--5--10--9---7--5--10--9--|

E-------8---7---------8---7--|

 

Chorus A&B (all chords 8x)

e------------------------|

b------------------------|

g------------------------|

d-2--5--7--9--2--5--7--9-|

a-2--5--7--9--2--5--7--9-|

E-0--3--5--7--0--3--5--7-|

To next Page>>>>>>>>>>>>>>

 

 

 

 

 

 

 

 

Bridge A m=palm mute Bridge End A %%=pause(bass riff)

e--------------------------| e----------------%%--------|

b---mm---/mm\--------------| b---mm---/mm\----%%---mmmm-|

g-9-99-121212-14-----------| g-9-99-121212-14-%%-9-9999-|

d-9-99-121212--------10-12-| d-9-99-121212----%%-9-9999-|

a-7-77-101010-12-----10-12-| a-7-77-101010-12-%%-7-7777-|

E--------------------8--10-| E----------------%%-\-5x-/-|

\ 3x /

 

Bridge B Bridge End B %%=pause(bass riff)

e--------------------------| e----------------%%----|

b--------------------------| b----------------%%-9~-|

g-9-99-121212-141414-------| g-9-99-121212-14-%%-9~-|

d-9-99-121212-141414-10-12-| d-9-99-121212-14-%%-9~-|

a-7-77-101010-121212-10-12-| a-7-77-101010-12-%%-7~-|

E--------------------8--10-| E----------------%%----|

\ 3x /

Verse A&B(2x 2nd time no palm mute) #=6x last 5 palm muted

e----------------------------|

b--#--#----------#--#--------|

g-9--7----#--#--9--7----#--#-|

d-9--7--10--9---9--7--10--9--|

a-7--5--10--9---7--5--10--9--|

E-------8---7---------8---7--|

 

Chorus A&B (all chords 8x) $=12x

e-------------------------|

b-------------------------|

g-----------------------$-|

d-2--5--7--9--2--5--7--9--|

a-2--5--7--9--2--5--7--9--|

E-0--3--5--7--0--3--5--7--|

 

End On (let ring then slide up)

e------|

b------|

g--9\--|

d--9\--|

a--7\--|

E--7\--|

 

Very similar to style of a JiiHoo tab.

It's the best way to tab!

Revised jan.24th 2004

Tabbed by sexpitols78 7/25/03. That date may be messed up.

 

 

 

 

 

Return to my to my Rancid tabs page

The Tablature is Copyright its respective owners.

Sign Up For My Newsletter
Subscribe | Unsubscribe

Site Map | Disclaimer | Privacy Policy | Media Kit | Submissions/Corrections

Website © 2000-2014 mattsmusicpage.com. All rights reserved.

Legal & DMCA: Matt's Music Page has been providing lyrics and tabs in a legal way, paying royalties each year to a few organizations. Then, all lyrics and tabs were removed from the site. Now, there's a new owner to the site, which purchased it August 26, 2014, and he is in negotiation to obtain licensing from BMI at the moment. If you have a specific DMCA request -- please do not hesitate to contact me via the contact button on top. I will do my very best to keep this site fully legal.

Get our toolbar!