Your One-Stop Source For
Music Lyrics
Bass and Guitar Tabs
and More...
Music Lyrics Bass and Guitar Tabs

 

The Tabs Are Below

Learn To Read Tab
Chords Handbook
Corrections & Additions
Get Official Tab
Rancid tabs @ 911Tabs

THE SENTENCE

 

 

D A G

e|---X---X---X---|

B|---X---X---X---|

G|---7---X---X---|

D|---7---7---5---|

A|---5---7---5---|

E|---X---5---3---|

 

NOTE:

/=how many times note or chord is hit

h=hammer on

p=pull of

F=full bend

pm=palm mute

 

INTRO

(w/random feedback)

D// A G/

D// A G/

D// A G/

D// A G/

 

INTRO SOLO

(w/rythm)

D A G D A G D A G D A G

e|-10--10--5--3--10--10--5--3--10--10--5--3--10--10--5--3-|

B|-10--10--5--3--10--10--5--3--10--10--5--3--10--10--5--3-|

G|-12F-12F-7F----12F-12F-7F----12F-12F-7F----12F-12F-7F---| T

D|--------------------------------------------------------| A

A|--------------------------------------------------------| B

E|--------------------------------------------------------|

 

VERSE

 

D(pm)

My life's a blessing understand my aggression

G(pm)

I don't regret nothing it's all been a lesson

D(pm)

Me and my friend we got the music

D(pm)

Like a loaded gun we're gonna use it

G(pm)

Tell us we ain't shit we won't listen

G(pm)

Try to hit but you keep on missing

 

CHORUS

 

(feedback)

A A

I knew the sentence then I knew it was gonna blow

A

Don't say I didn't warn you

A

Apocalypse radio

 

VERSE 2

D

Sometimes I'm a total wreck I wanna break someone's neck

G

I get a subwoofer going 4 twelves get my blood stream flowing

D(pm)

Never saw it coming I paid my price in time

G(pm)

It's been ten years or more all the battle scars on my mind

 

CHORUS AGAIN

 

INTRO SOLO AGAIN

 

SOLO

e|-10-10-10-13-10----------10----13///////////-|

B|-10-13-10-12-10-12-10----10-10-12///////////-|

G|----------------12-10h11----11---------------|

D|---------------------------------------------|

A|---------------------------------------------|

E|---------------------------------------------|

 

e|-3---------3-6p5p3----------------------|

B|-3-5-3---5-3-------6p5p3----6//////////-|

G|---5-3h4-5---------------5F-7//////////-|

D|----------------------------------------|

A|----------------------------------------|

E|----------------------------------------|

 

BRIDGE

(don't play/only random feedback)

My life's a blessing understand my aggresion

I don't regret nothing it's all been a lesson!

 

CHORUS AGAIN

 

INTRO SOLO AGAIN

 

End on 'D' w/random feedback

 

Return to my to my Rancid tabs page

The Tablature is Copyright its respective owners.

Sign Up For My Newsletter
Subscribe | Unsubscribe

Site Map | Disclaimer | Privacy Policy | Media Kit | Submissions/Corrections

Website © 2000-2014 mattsmusicpage.com. All rights reserved.

Legal & DMCA: Matt's Music Page has been providing lyrics and tabs in a legal way, paying royalties each year to a few organizations. Then, all lyrics and tabs were removed from the site. Now, there's a new owner to the site, which purchased it August 26, 2014, and he is in negotiation to obtain licensing from BMI at the moment. If you have a specific DMCA request -- please do not hesitate to contact me via the contact button on top. I will do my very best to keep this site fully legal.

Get our toolbar!