Your One-Stop Source For
Music Lyrics
Bass and Guitar Tabs
and More...
Music Lyrics Bass and Guitar Tabs

 

The Tabs Are Below

Learn To Read Tab
Chords Handbook
Corrections & Additions
Get Official Tab
Rancid tabs @ 911Tabs

SABRINA

 

D A G C# C

e---X----X----X----X-----X-----|

B---X----X----X----X-----X-----|

G---7----X----X----6-----5-----|

D---7----7----5----6-----5-----|

A---5----7----5----4-----3-----|

E---X----5----3----X-----X-----|

 

h:hammer-on

b:bend

 

 

Intro: D D D C# C (A|--0-0-2-0-2-0-2-0--| (x4)

 

Verse: D A G (x2)

 

D A G

I don't care, no i don't care....??????????? when you're alone out there

D A G

I don't care, no i don't care....??????????? when you're alone out there

 

Chorus:

 

D D D C# C (A|--0-0-2-0-2-0-2-0--|

Sabri-i-i-i-i-i-i-i-ina!!!!

D D D C# C (A|--0-0-2-0-2-0-2-0--|

Sabri-i-i-i-i-i-i-i-ina!!!!

D A D A A A A

Sabri-i-i-i-i-i-i-i-ina!!!!!!!

 

Verse: D A G (x2)

 

D A G

I don't care, no i don't care....??????????? when you're alone out there

D A G

I don't care, no i don't care....??????????? when you're alone out there

 

Chorus:

 

D D D C# C (A|--0-0-2-0-2-0-2-0--|

Sabri-i-i-i-i-i-i-i-ina!!!!

D D D C# C (A|--0-0-2-0-2-0-2-0--|

Sabri-i-i-i-i-i-i-i-ina!!!!

D A D A A A A

Sabri-i-i-i-i-i-i-i-ina!!!!!!!

 

Solo:

 

e|----------------------------------------------------------------------

B|----------------------------------------------------------------------

G|--13h14-14-14--13h14-14-14--13h14-14--14-14-14------------12-------12-

D|------------------------------------------------14-14---14------14----

 

e|--------------------------------------------------------------------

B|--------------------------------------------------------------------

G|---12--14---12------12--------12-----14-14----12--10--12--10--12----

D|----------------14-------14-----------------------------------------

 

e|------------------------------------------------------17-17-17-17-17--

B|----------------------------------15-15-15-15-15-15---17-17-17-17-17--

G|---14-14----12--10--12--10--12----14-14-14-14-14-14-------------------

D|----------------------------------------------------------------------

 

e|----------------------------------------------------------------------

B|----------------------------------------------------------------------

G|---13h14-14-14--13h14-14-14--13h14-14-14---13h14-14-14----13-12--10---

D|----------------------------------------------------------------------

 

e|-------------------------------------------------------------------

B|-------------------------------------------------------------------

G|------10--12--10--12--12b--10-------13b-13b--12-12--10--12--10--12-

D|--12---------------------------12----------------------------------

 

e|------------------------|

B|------------------------|

G|----12b--10-------10----|

D|--------------12--------|

 

Chorus:

 

D D D C# C (A|--0-0-2-0-2-0-2-0--|

Sabri-i-i-i-i-i-i-i-ina!!!!

D D D C# C (A|--0-0-2-0-2-0-2-0--|

Sabri-i-i-i-i-i-i-i-ina!!!!

D A D A A A A

Sabri-i-i-i-i-i-i-i-ina!!!!!!!

 

End on D

 

:---------------------------------------------------:

|Corrections/additional transcriptions are welcome. |

|Send them to: 'punk.tabs@usa.net' |

:---------------------------------------------------:

|Transcribed by 'Derek Carlson' |

:---------------------------------------------------:

 

 

Return to my to my Rancid tabs page

The Tablature is Copyright its respective owners.

Sign Up For My Newsletter
Subscribe | Unsubscribe

Site Map | Disclaimer | Privacy Policy | Media Kit | Submissions/Corrections

Website © 2000-2014 mattsmusicpage.com. All rights reserved.

Legal & DMCA: Matt's Music Page has been providing lyrics and tabs in a legal way, paying royalties each year to a few organizations. Then, all lyrics and tabs were removed from the site. Now, there's a new owner to the site, which purchased it August 26, 2014, and he is in negotiation to obtain licensing from BMI at the moment. If you have a specific DMCA request -- please do not hesitate to contact me via the contact button on top. I will do my very best to keep this site fully legal.

Get our toolbar!