Your One-Stop Source For
Music Lyrics
Bass and Guitar Tabs
and More...
Music Lyrics Bass and Guitar Tabs

 

The Tabs Are Below

Learn To Read Tab
Chords Handbook
Corrections & Additions
Get Official Tab
Rancid tabs @ 911Tabs

MY LIFE

 

(Originally by 'Sick of it All')

 

E A B G C C# D

e---X----X----X----X----X----X----X--|

B---X----X----X----X----X----X----X--|

G---9----X----X----X----5----6----7--|

D---9----7----9----5----5----6----7--|

A---7----7----9----5----3----4----5--|

E---X----5----7----3----X----X----X--|

 

b-bend

 

Intro: E A B (x2) (then a a little bass part)

 

VERSE: E A B (x4)

 

CHORUS:

 

D G A C C#

All my life people tell me what to say

D G A C C#

This is my life, I'll live it my own way!

 

VERSE: E A B (x4)

 

SOLO:

 

E A B E A B E A B E E E B

G----9b----------9b----------9b-------|

 

CHORUS:

 

D G A C C#

All my life people tell me what to say

D G A C C#

This is my life, I'll live it my own way!

 

OUTRO: E A B E

 

:---------------------------------------------------:

|Corrections/additional transcriptions are welcome. |

|Send them to: 'punk.tabs@usa.net' |

:---------------------------------------------------:

|Transcribed by 'Derek Carlson' |

:---------------------------------------------------:

 

 

Return to my to my Rancid tabs page

The Tablature is Copyright its respective owners.

Sign Up For My Newsletter
Subscribe | Unsubscribe

Site Map | Disclaimer | Privacy Policy | Media Kit | Submissions/Corrections

Website © 2000-2014 mattsmusicpage.com. All rights reserved.

Legal & DMCA: Matt's Music Page has been providing lyrics and tabs in a legal way, paying royalties each year to a few organizations. Then, all lyrics and tabs were removed from the site. Now, there's a new owner to the site, which purchased it August 26, 2014, and he is in negotiation to obtain licensing from BMI at the moment. If you have a specific DMCA request -- please do not hesitate to contact me via the contact button on top. I will do my very best to keep this site fully legal.

Get our toolbar!