Your One-Stop Source For
Music Lyrics
Bass and Guitar Tabs
and More...
Music Lyrics Bass and Guitar Tabs

 

The Tabs Are Below

Learn To Read Tab
Chords Handbook
Corrections & Additions
Get Official Tab
Rancid tabs @ 911Tabs

 

Rancid

Motorcycle Ride

 

--------------------------------------------------------------------------------

 

F Bb C D#

e|---X----X----X----X----|

B|---X----X----X----X----|

G|---X----3----5----8----|

D|---3----3----5----8----|

A|---3----1----3----6----|

E|---1----X----X----X----|

 

INTRO RIFF:

C D# C C D# D#

e|-8---11---8-8-11-11-|

B|-8---11---8-8-11-11-|

G|--------------------|

D|--------------------|

A|--------------------|

E|--------------------|

 

e|---------------|

B|---------------|

G|---------------|

D|-10-10-8-8-7-7-| x8

A|---------------|

E|---------------|

 

e|-6-6-6-6-8-6-6-6-6-6-8-8-8-8-8-8-11-8-8-8-|

B|-6-6-6-6-8-6-6-6-6-6-8-8-8-8-8-8-10-8-8-8-|

G|------------------------------------------|

D|------------------------------------------|

A|------------------------------------------|

E|------------------------------------------|

 

C D# C C D# D#

e|-6-6-6-6-8-6-6-6-6-6-8---11---8-8-11-11-|

B|-6-6-6-6-8-6-6-6-6-6-8---11---8-8-11-11-|

G|----------------------------------------|

D|----------------------------------------|

A|----------------------------------------|

E|----------------------------------------|

 

 

F C

If you wanna make a move then you better come in

 

Bb F

It's just ability to reason that wears so thin

 

F C

Living and dying and the stories that are true

 

Bb F

The secret to a good life is knowing when you're through...

(same chords for rest of verse)

 

Bb

.......before she died

 

C D# C C D# D#

I bit the bullet on a motorcycle ride

 

F C

...If you wanna make a move then you better come in

 

Bb F

It's just ability to reason that wears so thin

 

F C

If you wanna make a move then you better come in

 

Bb F

It's just ability to reason that wears so thin

 

Bb

.......before she died

 

C D# C C D# D#

e|-8----------11----------8-8-11-11-|

B|-8----------11----------8-8-11-11-|

G|----------------------------------|

D|----------------------------------|

A|----------------------------------|

E|----------------------------------|

I bit the bullet on a motorcycle ride

 

(INTRO RIFF) then hit "F" once (end)

 

 

 

Return to my to my Rancid tabs page

The Tablature is Copyright its respective owners.

Sign Up For My Newsletter
Subscribe | Unsubscribe

Site Map | Disclaimer | Privacy Policy | Media Kit | Submissions/Corrections

Website © 2000-2014 mattsmusicpage.com. All rights reserved.

Legal & DMCA: Matt's Music Page has been providing lyrics and tabs in a legal way, paying royalties each year to a few organizations. Then, all lyrics and tabs were removed from the site. Now, there's a new owner to the site, which purchased it August 26, 2014, and he is in negotiation to obtain licensing from BMI at the moment. If you have a specific DMCA request -- please do not hesitate to contact me via the contact button on top. I will do my very best to keep this site fully legal.

Get our toolbar!

 

Starbucks You Are Here Coffee Mug/Cup KENTUCKY - Horses, Banjo, Blue, White
$19.99
Starbucks You Are Here Coffee Mug/Cup KENTUCKY - Horses, Banjo, Blue, White picture


KNOWLES ROCKWELL HERITAGE "THE BANJO PLAYER" FIRST EDITION 1989 PLATE COA
$5.99
KNOWLES ROCKWELL HERITAGE


Vintage Postcard 1981 Disney World Banjo Kings Main Street USA 1981 Postmark
$4.99
 Vintage Postcard 1981 Disney World Banjo Kings Main Street USA 1981 Postmark picture


Banjo Barometer With Thermometer Hygrometer 490mm
$84.76
Banjo Barometer With Thermometer Hygrometer 490mm picture


ANTIQUE JAPANESE NIPPON FIGURINE SET OF 3 WOMEN GEISHA PLAYING DRUM BANJO FAN
$24.0
ANTIQUE JAPANESE NIPPON FIGURINE SET OF 3 WOMEN GEISHA PLAYING DRUM BANJO FAN picture