Your One-Stop Source For
Music Lyrics
Bass and Guitar Tabs
and More...
>Music Lyrics Bass and Guitar Tabs

 

The Tabs Are Below

Learn To Read Tab
Chords Handbook
Corrections & Additions
Get Official Tab
Rancid tabs @ 911Tabs

Band: Rancid

Song: Loki

By:Phillip K. (Krazevodka@hotmail.com)

 

Intro/Chorus

e|---------------------------------------------------------------------------|

B|---------------------------------------------------------------------------|

G|-6---6---9--6---6---9------------------------------------------------------|

D|-6-4-6-7-9--6-4-6-7-9------------------------------------------------------|

A|-4-4-4-7-7--4-4-4-7-7------------------------------------------------------|

E|---2---5------2---5--------------------------------------------------------|

 

Verse *=muted Play each muted chord 8x fast

e|---------------------------------------------------------------------------|

B|---------------------------------------------------------------------------|

G|----8*----4-5-6-5-4-3-2-1-----8*-------7-8-9-8-7---------------------------|

D|-7*-8*-7*------------------7*-8*-7*--7-7-8-9-8-7---------------------------|

A|-7*-6*-7*------------------7*-6*-7*--7-5-6-7-6-5---------------------------|

E|-5*----5*------------------5*----5*--5-------------------------------------|

 

 

Return to my to my Rancid tabs page

The Tablature is Copyright its respective owners.

Sign Up For My Newsletter
Subscribe | Unsubscribe

Site Map | Disclaimer | Privacy Policy | Media Kit | Submissions/Corrections

Website © 2000-2014 mattsmusicpage.com. All rights reserved.

Legal & DMCA: Matt's Music Page has been providing lyrics and tabs in a legal way, paying royalties each year to a few organizations. Then, all lyrics and tabs were removed from the site. Now, there's a new owner to the site, which purchased it August 26, 2014, and he is in negotiation to obtain licensing from BMI at the moment. If you have a specific DMCA request -- please do not hesitate to contact me via the contact button on top. I will do my very best to keep this site fully legal.

Get our toolbar!

 

Goebel Children of De Grazia "INDIAN BOY WITH DRUM" 7308 Figurine Signed
$59.99
Goebel Children of De Grazia


CLETRAC GENERAL BRAKE DRUM #112256
$19.95
CLETRAC GENERAL BRAKE DRUM #112256 picture


RABBITT BEATING A DRUM, CHILDS HANKIE, 9" BY 9"
$5.0
RABBITT BEATING A DRUM, CHILDS HANKIE,  9


Vintage Ceiling Light Globe Drum Shade White w/Clear Textured Glass Kitchen MCM
$14.99
Vintage Ceiling Light Globe Drum Shade White w/Clear Textured Glass Kitchen MCM picture


Ronnie "I'll Play My Drum For You"~Cherished Teddies #912905 ~ 6CC1/871
$5.0
Ronnie