Your One-Stop Source For
Music Lyrics
Bass and Guitar Tabs
and More...
Music Lyrics Bass and Guitar Tabs

 

The Tabs Are Below

Learn To Read Tab
Chords Handbook
Corrections & Additions
Get Official Tab
Rancid tabs @ 911Tabs

 

Rancid

Leicester Square

 

Intro

 

C G F F G C

e-----------------------------------------------

B-----------------------------------------------

G---5------------------------5-------------------- Repeat as many

D---5---5---3------3---5---5-------------------- times necessary.

A---3---5---3------3---5---3--------------------

E-------3----1------1---3------------------------

Verse G (every time you hit it, let is ring)

e---------------------------------------------------

B---------------------------------------------------

G---------------------------------------------------

D------5------5------5------5-----------------------

A------5------5------5------5-----------------------

E------3------3------3------3-----------------------

Chorus: Same as intro.

Then the change in the song:

E F C

e-------------------------------------------------------

B-------------------------------------------------------

G-------------------------------------------5--5--5--5--5---

D----2--2--2--2--2--2---3--3--3--3--3---5--5--5--5--5---

A----2--2--2--2--2--2---3--3--3--3--3---3--3--3--3--5---

E----0--0--0--0--0--0---1--1--1--1--1-------------------

Those are all parts in the song, just put them together when they are played and that is it.

 

Tabbed by Derek Carlson

 

 

 

Return to my to my Rancid tabs page

The Tablature is Copyright its respective owners.

Sign Up For My Newsletter
Subscribe | Unsubscribe

Site Map | Disclaimer | Privacy Policy | Media Kit | Submissions/Corrections

Website © 2000-2014 mattsmusicpage.com. All rights reserved.

Legal & DMCA: Matt's Music Page has been providing lyrics and tabs in a legal way, paying royalties each year to a few organizations. Then, all lyrics and tabs were removed from the site. Now, there's a new owner to the site, which purchased it August 26, 2014, and he is in negotiation to obtain licensing from BMI at the moment. If you have a specific DMCA request -- please do not hesitate to contact me via the contact button on top. I will do my very best to keep this site fully legal.

Get our toolbar!