Your One-Stop Source For
Music Lyrics
Bass and Guitar Tabs
and More...
>Music Lyrics Bass and Guitar Tabs

 

The Tabs Are Below

Learn To Read Tab
Chords Handbook
Corrections & Additions
Get Official Tab
Rancid tabs @ 911Tabs

 

Rancid

I WANNA RIOT

 

From: HANA31b@prodigy.com (MR JUSTIN T CONLON)

Drop D-tuning

 

Intro: Both Gtr 1&2

----------------------------

----------------------------

----------------------------

--10-12-13--10-10-12-13-

--10-12-13--10-10-12-13-

--10-12-13--10-10-12-13-

.

RIFF A

Gtr 1

------------------------------------------------------------------------------------

------------------------------------------------------------------------------------

------------------------------------------------------------------------------------

-3-3-2-1-3-6-7-6-3-3-2-3-4-7-5-4-3-2-3-3-2-1-3-6-7-5-3-3-2-3-4-7-5-4-3-2

------------------------------------------------------------------------------------

------------------------------------------------------------------------------------

.

Gtr 2

-x-x-1-1-x-x-1-1-x-x-1-1-x-x-1-1-x-x-1-1-x-x-1-1-x-x-1-1-x-x-1-1-

-x-x-1-1-x-x-1-1-x-x-1-1-x-x-1-1-x-x-1-1-x-x-1-1-x-x-1-1-x-x-1-1-

-------------------------------------------------------------------------

-------------------------------------------------------------------------

-------------------------------------------------------------------------

-------------------------------------------------------------------------

-

VERSE

Both Grt 1&2

--x-x-1-1-x-x-1-1-x-x-1-1-x-x-1-1-x-x-1-1-x-x-1-1

--x-x-1-1-x-x-1-1-x-x-1-1-x-x-1-1-x-x-1-1-x-x-1-1

-------------------------------------------------------

-------------------------------------------------------

-------------------------------------------------------

-------------------------------------------------------

-------------------------------------------------------

-------------------------------------------------------

.

CHOURS

Both Gtr 1&2

-----------------------------------------------------------------------------

-----------------------------------------------------------------------------

-----------------------------------------------------------------------------

-9-9-10-10-11-11-12-12-13-13-14-14-9-10-10-11-11-12-12-13-13-14

-9-9-10-10-11-11-12-12-13-13-14-14-9-10-10-11-11-12-12-13-13-14

-9-9-10-10-11-11-12-12-13-13-14-14-9-10-10-11-11-12-12-13-13-14

.

-------------------------------------------------------------

-------------------------------------------------------------

-------------------------------------------------------------

-9-9-10-10-11-11-12-12-13-13-14-14--10-12-13--------

-9-9-10-10-11-11-12-12-13-13-14-14--10-12-13--------

-9-9-10-10-11-11-12-12-13-13-14-14--10-12-13--------

.

END RIFF

Both Gtr 1&2

------------------

------------------

------------------

-10-10-12-13---

-10-10-12-13---

-10-10-12-13---

.

Intro 2x

Riff A 2x

Verse (keep repeating until the chours)

Chours 2x

Riff A 2x

Intro

Verse (keep repeating until the chours)

Chours 3x

End riff

 

Return to my to my Rancid tabs page

The Tablature is Copyright its respective owners.

Sign Up For My Newsletter
Subscribe | Unsubscribe

Site Map | Disclaimer | Privacy Policy | Media Kit | Submissions/Corrections

Website © 2000-2014 mattsmusicpage.com. All rights reserved.

Legal & DMCA: Matt's Music Page has been providing lyrics and tabs in a legal way, paying royalties each year to a few organizations. Then, all lyrics and tabs were removed from the site. Now, there's a new owner to the site, which purchased it August 26, 2014, and he is in negotiation to obtain licensing from BMI at the moment. If you have a specific DMCA request -- please do not hesitate to contact me via the contact button on top. I will do my very best to keep this site fully legal.

Get our toolbar!

 

Mil Surplus Amplifier Case
$22.5
Mil Surplus Amplifier Case picture


Seeburg Jukebox Master Amplifier Type MA1-L6.Jukebox 146 "trash can"
$49.0
Seeburg Jukebox Master Amplifier  Type MA1-L6.Jukebox  146


Vintage Brown 1/4" Press Fit Radio Amplifier Knobs Ribbed Dome Style
$14.99
Vintage Brown 1/4


TUSC TUBE AMPLIFIERS AD 1982- would be nice color pin-up to frame
$6.99
TUSC TUBE AMPLIFIERS AD 1982- would be nice color pin-up to frame picture


MARANTZ magazine ad CD-17 ST-17 PM-17 advertisement vintage amplifier player
$11.1
MARANTZ magazine ad CD-17 ST-17 PM-17 advertisement vintage amplifier player picture