Your One-Stop Source For
Music Lyrics
Bass and Guitar Tabs
and More...
Music Lyrics Bass and Guitar Tabs

 

The Tabs Are Below

Learn To Read Tab
Chords Handbook
Corrections & Additions
Get Official Tab
Rancid tabs @ 911Tabs

GHOST DANCE

 

 

D A G F E B

e---X----X----X----X----X----X--|

B---X----X----X----X----X----X--|

G---7----X----X----X----X----4--|

D---7----7----5----3----2----4--|

A---5----7----5----3----2----2--|

E---X----5----3----1----X----X--|

 

 

E pick scape

 

Verse (riff 1) (x4)

 

E B A

e|-------------------------------------------------------------------

B|-------------------------------------------------------------------

G|---9--9--------9--9------------------------------------------------

D|---9--9---11---9--9---11---9--9-------9---9--9--------7--7-----7---

A|---7--7---7----7--7---7----9--9---11--9---9--9---11---7--7--9--7---

E|---------------------------7--7---7---7---7--7---7----5--5--5--5---

 

A

e|-------------------------------------------------------|

B|-------------------------------------------------------|

G|-------------------------------------------------------|

D|---7--7-----7----7--7-----7---7--7-----7---------------|

A|---7--7--9--7----7--7--9--7---7--7--9--7---------------|

E|---5--5--5--5----5--5--5--5---5--5--5--5---------------|

 

 

A A A A

 

Riff 1 (x4) G F E B

 

Chorus:

 

D A G

Gho-o-o-o-o-o-o-o-o-st Dance

D A G

Gho-o-o-o-o-o-o-o-o-st Dance

D A G

Gho-o-o-o-o-o-o-o-o-st Dance

D A G

Gho-o-o-o-o-o-o-o-o-st Dance

 

 

Verse: Riff 1 (x4) A A A A

Riff 1 (x4) G F E B

 

Chorus:

 

D A G

Gho-o-o-o-o-o-o-o-o-st Dance

D A G

Gho-o-o-o-o-o-o-o-o-st Dance

D A G

Gho-o-o-o-o-o-o-o-o-st Dance

D A G

Gho-o-o-o-o-o-o-o-o-st Dance

 

Riff 1 (x6) End on E

 

 

:---------------------------------------------------:

|Corrections/additional transcriptions are welcome. |

|Send them to: 'punk.tabs@usa.net' |

:---------------------------------------------------:

|Transcribed by 'Derek Carlson' |

:---------------------------------------------------:

 

 

Return to my to my Rancid tabs page

The Tablature is Copyright its respective owners.

Sign Up For My Newsletter
Subscribe | Unsubscribe

Site Map | Disclaimer | Privacy Policy | Media Kit | Submissions/Corrections

Website © 2000-2014 mattsmusicpage.com. All rights reserved.

Legal & DMCA: Matt's Music Page has been providing lyrics and tabs in a legal way, paying royalties each year to a few organizations. Then, all lyrics and tabs were removed from the site. Now, there's a new owner to the site, which purchased it August 26, 2014, and he is in negotiation to obtain licensing from BMI at the moment. If you have a specific DMCA request -- please do not hesitate to contact me via the contact button on top. I will do my very best to keep this site fully legal.

Get our toolbar!