Your One-Stop Source For
Music Lyrics
Bass and Guitar Tabs
and More...
Music Lyrics Bass and Guitar Tabs

 

The Tabs Are Below

Learn To Read Tab
Chords Handbook
Corrections & Additions
Get Official Tab
Rancid tabs @ 911Tabs

 

Get Outta My Way

Rancid

 

 

Intro:

E--------------------------------

B--------------------------------

G---(12)----0r-0-----------------

D---(12)---------3-2-0-----2-0---

A---(10)---------------3-3-------

E--------------------------------

 

Verse:(Played 2x)

E--------------------------------

B--------------------------------

G--------------------5---7-------

D--5-5-5-5-5-5-5-5---5---7---5---

A--5-5-5-5-5-5-5-5---3---5---5---

E--3-3-3-3-3-3-3-3-----------3---

G C D G

 

Chorus: (Played 2x)

E----------------

B----------------

G---7---9---5----

D---7---9---5----

A---5---7---3----

E----------------

D E C

 

After Chorus:

E-----------------------------

B-----------------------------

G----------------5---7--------

D---5------------5---7----5---

A---5---(rest)---3---5----5---

E---3---------------------3---

G C D G

(After playing this once, play intro riff)

 

Solo: (This doesn't seem complete to me, but it's not bad)

^-bend

E---------------------------------------------------------

B---------------------------------------------------------

G-7^-7^-7^-7^-7^-7^-7^-7^-7^-7^-7^-7^---------------------

D-------------------------------------10-8-10-8-10-8-10-8-

A---------------------------------------------------------

E---------------------------------------------------------

 

E--6-6-6---6--10-8----10-10-10--7-7-7-7-8-7----12-12-12-12-

B--------8---------11-----------------------10-------------

G----------------------------------------------------------

D----------------------------------------------------------

A----------------------------------------------------------

E----------------------------------------------------------

 

E-12-12-12-12--8-8-8-8--10-10-10-10--

B------------------------------------

G------------------------------------

D------------------------------------

A------------------------------------

E------------------------------------

 

Order:

Intro

Verse

Chorus

After Chorus

Intro

verse

Chorus

After Chorus

Intro

Verse

Chorus

Solo

 

Then after solo, play verse chords 1x,

followed by "Kid get outta my way" played over G - C - D

about 13 or 14 times, and that's the song!

 

Lyrics: (my own interpretation)

Don't want to hurt you or cause any trouble but get outta my way, get

outta my way. Trying to dance and yo move on the double, said get outta

my way, get outta my way.

 

Don't want your lies and I don't want your rat race. I don't see any fun,

any fun thrown up round this space.

 

I paid as much as you, get outta my way, get outta my way.

 

Oh rich kid, rich kid get outta my hair, get outta my way, get outta my

way. I'll sing what I'll sing and I'll wear what I'll wear, get outta my

way, get outta my way.

 

I try to love mankind and I try to do what's right. But I can't do

anything, anything with this stain in my light.

 

Got a uniform all you need is a badge, get outta my way, get outta my way.

 

I don't wanna hurt you or cause any trouble but get outta my way, get

outta my way. Trying to dance, and yo move on the double, said get outta

my way, get outta my way.

 

Who do you think you are, do you think you're some kind of cop? Why did

you come at all, you're a fuckin cop!

 

Kid get outta my way, Kid get outta my way, Kid get outta my way, Kid get

outta my way, Kid get outta my way, Kid get outta my way, Kid, get outta

my way.

Kid get outta my way, Kid get outta my way, Kid get outta my way, Kid get

outta my way, Kid get out, Get out, OF MY WAY!

 

 

Return to my to my Rancid tabs page

The Tablature is Copyright its respective owners.

Sign Up For My Newsletter
Subscribe | Unsubscribe

Site Map | Disclaimer | Privacy Policy | Media Kit | Submissions/Corrections

Website © 2000-2014 mattsmusicpage.com. All rights reserved.

Legal & DMCA: Matt's Music Page has been providing lyrics and tabs in a legal way, paying royalties each year to a few organizations. Then, all lyrics and tabs were removed from the site. Now, there's a new owner to the site, which purchased it August 26, 2014, and he is in negotiation to obtain licensing from BMI at the moment. If you have a specific DMCA request -- please do not hesitate to contact me via the contact button on top. I will do my very best to keep this site fully legal.

Get our toolbar!