Your One-Stop Source For
Music Lyrics
Bass and Guitar Tabs
and More...
Music Lyrics Bass and Guitar Tabs

 

The Tabs Are Below

Learn To Read Tab
Chords Handbook
Corrections & Additions
Get Official Tab
Rancid tabs @ 911Tabs

END OF THE WORLD TONIGHT

 

 

B E C# E*

e----X-------X-------X---------X-----|

B----X-------X-------X---------X-----|

G----4-------X-------6---------9-----|

D----4-------2-------6---------9-----|

A----2-------2-------4---------7-----|

E----X-------X-------X---------X-----|

 

 

Intro (Riff 1):

 

e-----------------------|

B-----------------------|

G-----------------------|

D-----------------------|

A-----------2---0-------|

E---2---4---------------|

 

 

Solo/w B E B E B E B E B C# E* B C# E* (played underneath)

 

 

e|----7---10-10--9-9---7-7-7---10-10--9-9---7-7-7-------------

B|-------------------------------------------------10---------

G|------------------------------------------------------------

 

e|------------7---10-10--9-9---7-7-7---10-10--9-9---7-7-7---12---

B|---10--10------------------------------------------------------

G|---------------------------------------------------------------

 

e|---7-7--9--11--7-7--9--11---7-7-7--9--11-11--9-9--7----7-7--9--11---

B|--------------------------------------------------------------------

G|--------------------------------------------------------------------

 

e|---7-7--9--11--7-7--9--11---7-7-7--9--11-11--9-9--7----|

B|-------------------------------------------------------|

G|-------------------------------------------------------|

 

 

VERSE: Riff 1 B E (x8)

 

CHORUS:

 

B C# E*

Cause I seen it, I know it ......it's the end of the world tonight.

B C# E*

Cause I seen it, I know it ......it's the end of thw world tonight.

 

 

VERSE: Riff 1 B E (x8)

 

 

CHORUS:

 

B C# E*

Cause I seen it, I know it ......it's the end of the world tonight.

B C# E*

Cause I seen it, I know it ......it's the end of thw world tonight.

 

 

Bridge(sounds like a dead note hit with some kind of effect on his

guitar)

 

 

Solo/w B E B E B E B E B C# E* B C# E*

 

 

Riff 1 B

 

:---------------------------------------------------:

|Corrections/additional transcriptions are welcome. |

|Send them to: 'punk.tabs@usa.net' |

:---------------------------------------------------:

|Transcribed by 'Derek Carlson' |

:---------------------------------------------------:

 

 

Return to my to my Rancid tabs page

The Tablature is Copyright its respective owners.

Sign Up For My Newsletter
Subscribe | Unsubscribe

Site Map | Disclaimer | Privacy Policy | Media Kit | Submissions/Corrections

Website © 2000-2014 mattsmusicpage.com. All rights reserved.

Legal & DMCA: Matt's Music Page has been providing lyrics and tabs in a legal way, paying royalties each year to a few organizations. Then, all lyrics and tabs were removed from the site. Now, there's a new owner to the site, which purchased it August 26, 2014, and he is in negotiation to obtain licensing from BMI at the moment. If you have a specific DMCA request -- please do not hesitate to contact me via the contact button on top. I will do my very best to keep this site fully legal.

Get our toolbar!