Your One-Stop Source For
Music Lyrics
Bass and Guitar Tabs
and More...
>Music Lyrics Bass and Guitar Tabs

 

The Tabs Are Below

Learn To Read Tab
Chords Handbook
Corrections & Additions
Get Official Tab
Rancid tabs @ 911Tabs

 

Rancid

Detroit

C G F

e---X----X----X----

B---X----X----X----

G---5--------------

D---5----5----3----

A---3----5----3----

E---X----3----1----

 

Intro riff:

e-------------------------------------------------------

B-------------------------------------------------------

G-5-7-9-9-7--2-5-7-7-5----------------------------------

D-------------------------------------------------------

A-------------------------------------------------------

E-------------------------------------------------------

 

e-8-8-8-8-8-8-8-8-3--10-9-8-10-9-8-10-9-8-10-9-8-10-3-8-

B-8-8-8-8-8-8-8-8-3------------------------------10-3-8-

G-------------------------------------------------------

D-------------------------------------------------------

A-------------------------------------------------------

E-------------------------------------------------------

 

C G

Didn't know what time it was 'til the sun went down

 

C G

Detroit, Michigan on the bus downtown

 

C G

Last night I was fighting on the street

 

C G C

But tonight I got a girl next to me in this cold world she brings me heat

 

(neato bass riff)

 

F G C

Got a good feeling about a bad city tonight

 

F G C F G

Got a good feeling everything's gonna be alriiiiiiight

 

C C F G

Some run some fight got a good feeling about a bad city tonight

 

C G

Detained in illegal custody spent the night in jail

 

C G

With a drunken priest and a hooker five hundred dollars bail

 

C G

Nobody knew who from crew was standing there in the street like that

 

C G C

I didn't ground didn't make a sound and it just goes like that

 

(neato bass riff)

 

F G C

Got a good feeling about a bad city tonight

 

F G C F G

Got a good feeling everything's gonna be alriiiiiiight

 

C C F G

Some run some fight got a good feeling about a bad city tonight

 

e-1-(slide to)-3--1-(slide to)-3--1-(slide to)-3--10-10-10- x4

B-1-(slide to)-3--1-(slide to)-3--1-(slide to)-3--10-10-10- x4

G----------------------------------------------------------

D----------------------------------------------------------

A----------------------------------------------------------

E----------------------------------------------------------

 

(let ring).............................

 

C

Bus dropped me off and I had to cough

 

G

Cuz I couldn't breathe because I got ripped off

 

C G

Couldn't realize being satisfied cuz it runs so thin

 

G

And that's why I'm pissed off

 

C

She had the money I had the time

 

G

She had the champagne I had the cisco wine

 

C G

She said do you wanna come cuz you better hurry

 

G C

We'll have hell to pay

 

F G C

Got a good feeling about a bad city tonight

 

F G C F G

Got a good feeling everything's gonna be alriiiiiiight

 

C C F G

Some run some fight got a good feeling about a bad city tonight

 

 

 

Return to my to my Rancid tabs page

The Tablature is Copyright its respective owners.

Sign Up For My Newsletter
Subscribe | Unsubscribe

Site Map | Disclaimer | Privacy Policy | Media Kit | Submissions/Corrections

Website © 2000-2014 mattsmusicpage.com. All rights reserved.

Legal & DMCA: Matt's Music Page has been providing lyrics and tabs in a legal way, paying royalties each year to a few organizations. Then, all lyrics and tabs were removed from the site. Now, there's a new owner to the site, which purchased it August 26, 2014, and he is in negotiation to obtain licensing from BMI at the moment. If you have a specific DMCA request -- please do not hesitate to contact me via the contact button on top. I will do my very best to keep this site fully legal.

Get our toolbar!

 

#H856- Vintage Unused Xmas Greeting Card Santa Playing the Harmonica to Dog
$10.0
#H856- Vintage Unused Xmas Greeting Card Santa Playing the Harmonica to Dog picture


Civil War Relic Harmonica Sound Board, dug, Spotsylvania, VA
$0.99
Civil War Relic Harmonica Sound Board, dug, Spotsylvania, VA picture


Mini 4 Hole Harmonica Model Stainless Steel Metal Key Chain Loop Key Ring Chain
$0.01
Mini 4 Hole Harmonica Model Stainless Steel Metal Key Chain Loop Key Ring Chain picture


Bob Dylan Hand Signed Series Set of 7 Hohner Marine Band Harmonicas
$25500.0
Bob Dylan Hand Signed Series Set of 7 Hohner Marine Band Harmonicas picture


W/Box PRECIOUS MOMENTS Lord Give Me A Song Harmonica ENESCO 12386 Figurine 1984
$9.34
W/Box PRECIOUS MOMENTS Lord Give Me A Song Harmonica ENESCO 12386 Figurine 1984 picture