Your One-Stop Source For
Music Lyrics
Bass and Guitar Tabs
and More...
Music Lyrics Bass and Guitar Tabs

 

The Tabs Are Below

Learn To Read Tab
Chords Handbook
Corrections & Additions
Get Official Tab
Rancid tabs @ 911Tabs

Band: Rancid

Song: Corruption

By: Phillip K. (krazevodka@hotmail.com)

 

Listen to the song for the right rythym. Play each chord in verse couple

times.

*=mute

 

Intro

e|---------------------------------------------------------------------------|

B|---------------------------------------------------------------------------|

G|---------------8---------8-------------------------------------------------|

D|-weird effects-8-7-6-5-4-8-7-6-5-4-----------------------------------------|

A|-weird effects-6-7-6-5-4-6-7-6-5-4-----------------------------------------|

E|-weird effects---5-4-3-2---5-4-3-2-----------------------------------------|

 

Verse Play 4 X up till }'s, then after next progression play 1st 4X

e|------------}--------------------------------------------------------------|

B|------------}--------------------------------------------------------------|

G|--------6-5-}-6-9-8-9--6-9-8-9---------------------------------------------|

D|-6*-7-5-6-5-}-6-9-8-9--6-9-8-9---------------------------------------------|

A|-6*-7-5-4-3-}-4-7-6-7--4-7-6-7---------------------------------------------|

E|-4*-5-3-----}--------------------------------------------------------------|

 

Verse Continued, Play 1st progression 4X for beginning of verse 2

e|---------------------------------------------------------------------------|

B|---------------------------------------------------------------------------|

G|-6-7-8-9--6-7-8-9---------6-5----------------------------------------------|

D|-6-7-8-9--6-7-8-9--6*-7-5-6-5----------------------------------------------|

A|-4-5-6-7--4-5-6-7--6*-7-5-4-3----------------------------------------------|

E|-------------------4*-5-3--------------------------------------------------|

 

2nd verse continued

e|---------------------------------------------------------------------------|

B|---------------------------------------------------------------------------|

G|-8---------8-----------6-9-8-9--6-9-8-9---6-7-8-9--6-7-8-9-----------------|

D|-8-7-6-5-4-8-7-6-5-4---6-9-8-9--6-9-8-9---6-7-8-9--6-7-8-9-----------------|

A|-6-7-6-5-4-6-7-6-5-4---4-7-6-7--4-7-6-7---4-5-6-7--4-5-6-7-----------------|

E|---5-4-3-2---5-4-3-2-------------------------------------------------------|

 

 

Return to my to my Rancid tabs page

The Tablature is Copyright its respective owners.

Sign Up For My Newsletter
Subscribe | Unsubscribe

Site Map | Disclaimer | Privacy Policy | Media Kit | Submissions/Corrections

Website © 2000-2014 mattsmusicpage.com. All rights reserved.

Legal & DMCA: Matt's Music Page has been providing lyrics and tabs in a legal way, paying royalties each year to a few organizations. Then, all lyrics and tabs were removed from the site. Now, there's a new owner to the site, which purchased it August 26, 2014, and he is in negotiation to obtain licensing from BMI at the moment. If you have a specific DMCA request -- please do not hesitate to contact me via the contact button on top. I will do my very best to keep this site fully legal.

Get our toolbar!

 

Starbucks You Are Here Coffee Mug/Cup KENTUCKY - Horses, Banjo, Blue, White
$19.99
Starbucks You Are Here Coffee Mug/Cup KENTUCKY - Horses, Banjo, Blue, White picture


KNOWLES ROCKWELL HERITAGE "THE BANJO PLAYER" FIRST EDITION 1989 PLATE COA
$5.99
KNOWLES ROCKWELL HERITAGE


Vintage Postcard 1981 Disney World Banjo Kings Main Street USA 1981 Postmark
$4.99
 Vintage Postcard 1981 Disney World Banjo Kings Main Street USA 1981 Postmark picture


Banjo Barometer With Thermometer Hygrometer 490mm
$84.76
Banjo Barometer With Thermometer Hygrometer 490mm picture


ANTIQUE JAPANESE NIPPON FIGURINE SET OF 3 WOMEN GEISHA PLAYING DRUM BANJO FAN
$24.0
ANTIQUE JAPANESE NIPPON FIGURINE SET OF 3 WOMEN GEISHA PLAYING DRUM BANJO FAN picture