Your One-Stop Source For
Music Lyrics
Bass and Guitar Tabs
and More...
Music Lyrics Bass and Guitar Tabs

 

The Tabs Are Below

Learn To Read Tab
Chords Handbook
Corrections & Additions
Get Official Tab
Rancid tabs @ 911Tabs

song: turntables

artist: rancid

 

Intro

G-----------------------

D-----------------------

A-3-33-33-3/6-6-6-66----

E----------------------

 

Verse

G----------2-0-5432------------------------------------------------------

D----22-55---------5432-------------------------------------------------

A-33-------------------------00-33-01-321---------22-55-32----00-33-01--

E------------------------1-1--------------321--33----------1-1-----------

 

G----------2-0-5432---------

D----22-55----------5432----

A-33------------------------

E---------------------------

 

Chorus

G--------------------------------------------5432---

D-------------------------------------2--5---------

A---2---5---------------0--3-------3---------------

E-3------------------1-----------------------------

 

Turnaround

G-5432--------

D------5432---

A-------------

E------------

 

tabbed by basspunx3

its a really cool bass line. im pretty sure it's right cause i can play with it

have fun

 

 

Return to my to my Rancid tabs page

The Tablature is Copyright its respective owners.

Sign Up For My Newsletter
Subscribe | Unsubscribe

Site Map | Disclaimer | Privacy Policy | Media Kit | Submissions/Corrections

Website © 2000-2014 mattsmusicpage.com. All rights reserved.

Legal & DMCA: Matt's Music Page has been providing lyrics and tabs in a legal way, paying royalties each year to a few organizations. Then, all lyrics and tabs were removed from the site. Now, there's a new owner to the site, which purchased it August 26, 2014, and he is in negotiation to obtain licensing from BMI at the moment. If you have a specific DMCA request -- please do not hesitate to contact me via the contact button on top. I will do my very best to keep this site fully legal.

Get our toolbar!