Your One-Stop Source For
Music Lyrics
Bass and Guitar Tabs
and More...
Music Lyrics Bass and Guitar Tabs

 

The Tabs Are Below

Learn To Read Tab
Chords Handbook
Corrections & Additions
Get Official Tab
Rancid tabs @ 911Tabs

Band-Rancid

Title-stickin in my eye

Tabber-Ryan Field (rabidmonkfish@aol.com)

 

This is a beter version than nofx in my view but you might want to

learn that one first to make it easier on yourself, have fun this is

a great song

P.S. this is my first tab ive ever done so take it easy on me when

you rate cheers!! i think its pretty good what do reckon> e-mail me

 

Opening riff

G--12-12-12-12-11-11-12-12-12-9-9-9-9-8

D--14-14-14-14-12-12-10-10-10-9-9-9-9-9 X2

A--------------------------------------

E--------------------------------------

 

G------14--------14-----------12-10-8h9-8h9-8h9-8--

D-12h14--14-13-12--14-13-12/10--------------------9

A--------------------------------------------------

E--------------------------------------------------

 

G--12-12-12-12-11-11-12-12-12-9-9-9-9-8

D--14-14-14-14-12-12-10-10-10-9-9-9-9-9

A--------------------------------------

E--------------------------------------

 

verse riff(LISTEN 2 SONG 4 RYTHAM)(Speed up when the singing starts)

2 before the singing

4 sped up versions when he starts singing

G---------------------------------------

D---------------------------------------

A--77777777-5555555-33333333-22222222-55

E---------------------------------------

 

Chorus

G-----------------------------------------

D----------------------------------------- X2

A-----------------00000000222222-5p2-5p2-5

E00000000333333333------------------------

 

Bridge (the last bits are gonna take a bit of practice)

G--------------------------------------------

D--------(10's not 1-0)-(12's not 1-2)------- X3

A7777777-10101010101010-12121212121212-333555

E--------------------------------------------

 

G-------------------------------------12--------------------12-------

D--------------------------------12h14--14-12-14-------12h14--14-12-14

A7777777-10101010101010-12--12h14-----------------12h14---------------

E---------------------------------------------------------------------

 

G--------------------------------------------------------

D14-14-14-14-14-12h14-14-14-14-14-12h14-14-14-14-14-12h14

A--------------------------------------------------------

E--------------------------------------------------------

 

G--------------------------------------------------------

D-14-14-14-14-12h14-14-14-14-14-12h14-14-14-14-14-12h14

A--------------------------------------------------------

E--------------------------------------------------------

 

G-12-14-16-14-12-14-12--------

D---------------------14-12-14

A-----------------------------

E-----------------------------

 

Verse

G---------------------------------------

D--------------------------------------- X4

A--77777777-5555555-33333333-22222222-55

E---------------------------------------

 

Chorus

G-----------------------------------------

D----------------------------------------- X2

A-----------------00000000222222-5p2-5p2-5

E00000000333333333------------------------

 

G-----------------

D----------------- X3

A-222222-5p2-5p2-5

E-----------------

 

G-----------------------------------------

D----------------------------------------- X2

A-----------------00000000222222-5p2-5p2-5

E00000000333333333------------------------

 

G-----------------

D----------------- X3

A-222222-5p2-5p2-5

E-----------------

 

Last note

E--0~

 

 

Return to my to my Rancid tabs page

The Tablature is Copyright its respective owners.

Sign Up For My Newsletter
Subscribe | Unsubscribe

Site Map | Disclaimer | Privacy Policy | Media Kit | Submissions/Corrections

Website © 2000-2014 mattsmusicpage.com. All rights reserved.

Legal & DMCA: Matt's Music Page has been providing lyrics and tabs in a legal way, paying royalties each year to a few organizations. Then, all lyrics and tabs were removed from the site. Now, there's a new owner to the site, which purchased it August 26, 2014, and he is in negotiation to obtain licensing from BMI at the moment. If you have a specific DMCA request -- please do not hesitate to contact me via the contact button on top. I will do my very best to keep this site fully legal.

Get our toolbar!