Your One-Stop Source For
Music Lyrics
Bass and Guitar Tabs
and More...
Music Lyrics Bass and Guitar Tabs

 

The Tabs Are Below

Learn To Read Tab
Chords Handbook
Corrections & Additions
Get Official Tab
Rancid tabs @ 911Tabs

Artist - Rancid

Song - Start Now

Album - Indestructible (2003)

Notes - Standard Tuning [E A D G]

 

 

Verse

G|----------------|----------------|

D|----------------|----------------|

A|4-4-4-4-4-4-4-6-|--------3---3-6-|

E|----------------|4-4-4-4---4-----|x3

 

G|----------------|----------------|

D|----------------|----------------|

A|----------------|----------------|

E|6-6-6-6-6-6-6-6-|4-4-4-4-4-4-4-4-|

 

Pre Chorus

G|----------------|----------------|

D|----------------|------13--------|

A|4----/8-----(8)/|13--------------|

E|----------------|----------------|

 

Chorus

G|----------------|----------------|----------------|----------------|

D|----------------|----------------|----------------|----------------|

A|--------3---3-4-|6-----6-9-8-6---|--------------3-|4-----4-3-4-3-4-|

E|4-----4---------|--------------6-|6-----6-6-6-6---|----------------|x2

 

Verse

G|----------------|----------------|

D|----------------|----------------|

A|4-4-4-4-4-4-4-6-|--------3---3-6-|

E|----------------|4-4-4-4---4-----|x3

 

G|----------------|----------------|

D|----------------|----------------|

A|----------------|--------3---3-6-|

E|6-6-6-6-6-6-6-6-|4-4-4-4---4-----|

 

G|----------------|----------------|

D|----------------|----------------|

A|4-4-4-4-4-4-4-6-|--------3---3-6-|

E|----------------|4-4-4-4---4-----|x3

 

G|----------------|----------------|

D|----------------|----------------|

A|----------------|--------3---3-6-|

E|6-6-6-6-6-6-6-6-|4-4-4-4---4-----|

 

Pre Chorus

G|----------------|----------------|

D|----------------|------13--------|

A|4----/8-----(8)/|13--------------|

E|----------------|----------------|

 

Chorus

G|----------------|----------------|----------------|----------------|

D|----------------|----------------|----------------|----------------|

A|--------3---3-4-|6-----6-9-8-6---|--------4---4-6-|4-----4-3-4-3-6-|

E|4-----4---------|--------------6-|6-----6---6-----|----------------|

 

G|----------------|----------------|----------------|----------------|

D|----------------|----------------|----------------|----------------|

A|--------3---3-4-|6-----6-9-8-6---|--------4---4-6-|4-----4-3-4-3-4-|

E|4-----4---------|--------------6-|6-----6---6-----|----------------|

 

G|----------------|----------------|----------------|----------------|

D|----------------|----------------|----------------|----------------|

A|--------3---3-4-|6-----6-9-8-6---|--------4---4-6-|4-----4-3-4-3---|

E|4-----4---------|--------------6-|6-----6---6-----|----------------|

 

G|----------------|----------------|----------------|----------------|

D|----------------|----------------|----------------|----------------|

A|--------3---3-4-|6-----6-9-8-6---|--------4---4-6-|4-----4-3-4-3-6-|

E|4-----4---------|--------------6-|6-----6---6-----|----------------|

 

Bridge

G|----------------|

D|----------------|

A|----------------|

E|4---------------| THEN REST FOR 7 BARS (until Tim says "Blood all over the wall")

 

G|----------------|6---------------|6---------------|----------------|

D|6---------------|--------6-------|--------6-------|----------------|

A|----------------|----------------|----------------|----------------|

E|----------------|----------------|----------------|----------------|

 

 

G|----------------|6---------------|6---------------|----------------|

D|6---------------|--------6-------|--------6-------|----------------|

A|----------------|----------------|----------------|----------------|

E|----------------|----------------|----------------|----------------|

 

G|----8-----6---8-|----8-----6-----|----8-----6---8-|----------6-8-8-|

D|-------/8-------|-------/8-----8-|-------/8-------|5-5-5-6-8-------|

A|6---------------|6---------------|6---------------|----------------|

E|----------------|----------------|----------------|----------------|

 

G|----8-----6---8-|----8-----6-----|----8---66------|----------------|

D|-------/8-------|-------/8-----8-|------/8--887766|----------------|

A|6---------------|6---------------|6---------------|99887766--------|

E|----------------|----------------|----------------|--------99887766|

 

Guitar Solo

G|----------------|----------------|----------------|----------------|

D|----------------|----------------|----------------|----------------|

A|--------3---3-4-|6-----6-9-8-6---|--------4---4-6-|4-----4-3-4-3-6-|

E|4-----4---------|--------------6-|6-----6---6-----|----------------|

 

G|----------------|----------------|----------------|----------------|

D|----------------|----------------|----------------|----------------|

A|--------3---3-4-|6-----6-9-8-6---|--------4---4-6-|4-----4-4-4-6-6-|

E|4-----4---------|--------------6-|6-----6---6-----|----------------|

 

Chorus

G|----------------|----------------|----------------|----------------|

D|----------------|----------------|----------------|----------------|

A|--------3---3-4-|6-----6-9-8-6---|--------4---4-6-|4-----4-3-4-3-6-|

E|4-----4---------|--------------6-|6-----6---6-----|----------------|

 

G|----------------|----------------|----------------|----------------|

D|----------------|----------------|----------------|----------------|

A|--------3---3-4-|6-----6-9-8-6---|--------4---4-6-|4-4-3-3-4-4-6-6-|

E|4-----4---------|--------------6-|6-----6---6-----|----------------|

 

G|----------------|----------------|----------------|----------------|

D|----------------|----------------|----------------|----------------|

A|--------3---3-4-|6-----6-9-8-6---|--------4---4-6-|4-----4-3-4-3-6-|

E|4-----4---------|--------------6-|6-----6---6-----|----------------|

 

G|----------------|----------------|----------------|----------------|

D|----------------|----------------|----------------|----------------|

A|--------3---3-4-|6-----6-9-8-6---|--------4---4-6-|4-4-3-3-4-4-6-6-|

E|4-----4---------|--------------6-|6-----6---6-----|----------------|

 

G|----------------|----------------|----------------|----------------|

D|----------------|----------------|----------------|----------------|

A|--------3---3-4-|6-----6-9-8-6---|--------4---4-6-|4-----4-3-4-3-6-|

E|4-----4---------|--------------6-|6-----6---6-----|----------------|

 

G|----------------|----------------|----------------|----------------|

D|----------------|----------------|----------------|--3-6-3---------|

A|--------3---3-4-|6-----6-9-8-6---|--------4---4-6-|4-------6-4-3-4-|

E|4-----4---------|--------------6-|6-----6---6-----|----------------|

 

G|----------------|----------------|----------------|----------------|

D|----------------|----------------|----------------|----------------|

A|--------3---3-4-|6-----6-9-8-6---|--------4---4-6-|4-----4-3-4-3-6-|

E|4-----4---------|--------------6-|6-----6---6-----|----------------|

 

G|----------------|----------------|----------------|----------------|

D|----------------|----------------|----------------|--3-6-3---------|

A|--------3---3-4-|6-----6-9-8-6---|--------4---4-6-|4-------6-4-3-4-|

E|4-----4---------|--------------6-|6-----6---6-----|----------------|

 

Fade out

 

 

Return to my to my Rancid tabs page

The Tablature is Copyright its respective owners.

Sign Up For My Newsletter
Subscribe | Unsubscribe

Site Map | Disclaimer | Privacy Policy | Media Kit | Submissions/Corrections

Website © 2000-2014 mattsmusicpage.com. All rights reserved.

Legal & DMCA: Matt's Music Page has been providing lyrics and tabs in a legal way, paying royalties each year to a few organizations. Then, all lyrics and tabs were removed from the site. Now, there's a new owner to the site, which purchased it August 26, 2014, and he is in negotiation to obtain licensing from BMI at the moment. If you have a specific DMCA request -- please do not hesitate to contact me via the contact button on top. I will do my very best to keep this site fully legal.

Get our toolbar!

 

Hard Rock Pin Las Vegas 4th of july red white and blue guitar
$5.0
Hard Rock Pin Las Vegas 4th of july red white and blue guitar picture


Hard Rock Pin Hollywood Fl Bell Girl with dice luggage and guitar
$5.0
Hard Rock Pin Hollywood Fl Bell Girl with dice luggage and guitar picture


Hard Rock Pin Las Vegas King of Clubs Guitar rare only 3 lines of info on back
$5.0
Hard Rock Pin Las Vegas King of Clubs Guitar rare only 3 lines of info on back picture


Hard Rock Pin Edmonton guitar pin
$5.0
Hard Rock Pin Edmonton guitar pin picture


Lladro Guitar Boy #4614 - Beautiful Piece of Lladro
$109.0
Lladro Guitar Boy #4614 - Beautiful Piece of Lladro picture