Your One-Stop Source For
Music Lyrics
Bass and Guitar Tabs
and More...
Music Lyrics Bass and Guitar Tabs

 

The Tabs Are Below

Learn To Read Tab
Chords Handbook
Corrections & Additions
Get Official Tab
Rancid tabs @ 911Tabs

 

Rancid

Roots Radicals

fig.1

 

Took the six- tee bus

|----------------------------------|

|----------------------------------|

|-3---3---3----3---3---------------|

|----------------------------------|

 

Out of downtown Campbell,

|----------------------------------|

|----------------------------------|

|----------------------------------|

|-1---1----1---1-----1---1---------|

 

Ben Za-not-to he was on there

|----------------------------------|

|----------------------------------|

|-----------------------1--1-------|

|-1---1--3---3---3---3-------------|

 

He was wai- ting for me

|----------------------------------|

|----------------------------------|

|-3-----3-------3----3---3---3-----|

|----------------------------------|

 

 

 

fig.2

 

I star- ted thinkin'

|----------------------------------|

|----------------------------------|

|-0---1---2---3---3-----3-----3----|

|----------------------------------|

 

You know I started drinkin'

|----------------------------------|

|----------------------------------|

|-1---0---1---1---1---1-----1---1--|

|----------------------------------|

 

 

I don't re-mem-ber too much of that day.

|-2---3----3---2--1---1---1------------------|

|------------------------------2-----3--3--3-|

|--------------------------------------------|

|--------------------------------------------|

 

 

 

 

fig.3

 

With the music execution and the talk of revolution

|---------------------------0------------------------|

|-----------------2---3----------------------0-------|

|-3-----3---3------------------------2---3-----------|

|-------------------------------3--------------------|

 

It bleeds in me... And it goes-

|---------------------------------------------|

|-0---0-----0--0--0-0-0-0-0-0-0-0--0---0--0-0-|

|---------------------------------------------|

|---------------------------------------------|

 

 

 

 

 

fig.4

 

Give em the boot,

|-5----2---0----------------|

|-------------2-------------|

|---------------------------|

|---------------------------|

 

 

 

fig.5

 

The roots, the ra-di-ca-ls.

|-0--------------0-----------------------|

|-----3------2------3--2--0--------------|

|------------------------------3---------|

|----------------------------------------|

 

 

fig.6

 

The roots the reg-gae on my stere-o.

|-0--------------0-----------5--5--5-----|

|-----3------2-----3---2--0--------------|

|----------------------------------------|

|----------------------------------------|

 

|----------------------------------------|

|-----------------3---2---0--------------|

|-----------------------------3----------|

|-3---3---3---3--------------------------|

 

 

 

fig.7

 

yeah,yeah, yeah,yeah,yeah,yeah,yeah

|-------------------------------------------------|

|-3-3---1-1--0-0----------------------------------|

|------------------3-3--1-1--0-0------------3-3---|

|---------------------------------3-3--1-1--------|

 

 

|-------0-0---2-2---5-5---3-3---2-2---0-0---|

|-2-2---------------------------------------|

|-------------------------------------------|

|-------------------------------------------|

 

 

fig.8

 

yeah,yeah, yeah,yeah,yeah,yeah,

|-------------------------------------------|

|-3-3---1-1--0-0----------------------------|

|------------------3-3--1-1--0-0------------|

|---------------------------------3-3--1-1--|

 

yeah!

|-0-0-0-0-0-0-0-0-0-0-0-0-|

|-------------------------|

|-------------------------|

|-------------------------|

 

 

 

Figure Sequence + Lyric:

----------------------------------------------------------

 

 

fig.1 Took the 60 bus out of downtown Campbell,

 

Ben Zanotto he was on there

 

He was waiting for me.

 

fig.1 All the punk rockers and the moon stompers,

 

Are out on the corner where they're sparing for change.

 

fig.2 I started thinkin'

 

You know I started drinkin'

 

I don't remember too much of that day.

 

fig.2 Something struck me funny when we ran out of money,

 

Where do you go now when your only 15?

 

 

 

fig.3 With the music exectution and the talk of revolution

 

It bleeds in me...And it goes-

 

 

 

fig.4 Give em the boot,

 

fig.5 The roots, the radicals.

 

fig.4 Give em the boot,

 

fig.5 You know I'm a radical.

 

fig.4 Give em the boot,

 

fig.6 The roots the reggae on my stereo.

 

 

 

fig.2 The radio was playin'

 

Desmon Dekker was singin'

 

On the 43'd bus as we climb up the hill.

 

fig.2 Nothing incomin' but the reggae drummin'

 

And we all come from unloving homes.

 

fig.2 Why even bother,

 

I pick up the bottle.

 

Hey Mr. Bus driver let these people on.

 

fig.2 Rude girl Carol was a mini-skirt girl,

 

My blurry vision saw nothing wrong.

 

 

 

fig.3 With the music exectution and the talk of revolution

 

It bleeds in me...And it goes-

 

 

 

fig.4 Give em the boot,

 

fig.5 The roots, the radicals.

 

fig.4 Give em the boot,

 

fig.5 You know I'm a radical.

 

fig.4 Give em the boot,

 

fig.6 The roots the reggae on my stereo.

 

On my stereo!

 

 

 

fig.7 yeah, yeah, yeah, yeah, yeah, yeah, yeah... (3x)

 

fig.8 yeah, yeah, yeah, yeah, yeah, yeah... yeah!

 

 

 

fig.1 Took the 60 bus out of downtown Campbell,

 

Ben Zanotto he was on there

 

He was waiting for me.

 

fig.1 All the punk rockers and the moon stompers,

 

Are out on the corner where they're sparing for change.

 

fig.2 The radio was playin'

 

Desmon Dekker was singin'

 

On the 43'd bus as we climb up the hill.

 

fig.2 Rude girl Carol was a mini-skirt girl,

 

My blurry vision saw nothing wrong.

 

 

 

fig.3 With the music exectution and the talk of revolution

 

It bleeds in me...And it goes-

 

 

_

fig.4 Give em the boot, |

|

fig.5 The roots, the radicals. |

|

fig.4 Give em the boot, |

2x

fig.5 You know I'm a radical. |

|

fig.4 Give em the boot, |

|

fig.6 The roots the reggae on my stereo. _|

 

 

 

Tab by:

Caio Klasing Pandolfi and

Karina Klasing Pandolfi

 

 

 

Return to my to my Rancid tabs page

The Tablature is Copyright its respective owners.

Sign Up For My Newsletter
Subscribe | Unsubscribe

Site Map | Disclaimer | Privacy Policy | Media Kit | Submissions/Corrections

Website © 2000-2014 mattsmusicpage.com. All rights reserved.

Legal & DMCA: Matt's Music Page has been providing lyrics and tabs in a legal way, paying royalties each year to a few organizations. Then, all lyrics and tabs were removed from the site. Now, there's a new owner to the site, which purchased it August 26, 2014, and he is in negotiation to obtain licensing from BMI at the moment. If you have a specific DMCA request -- please do not hesitate to contact me via the contact button on top. I will do my very best to keep this site fully legal.

Get our toolbar!