Your One-Stop Source For
Music Lyrics
Bass and Guitar Tabs
and More...
Music Lyrics Bass and Guitar Tabs

 

The Tabs Are Below

Learn To Read Tab
Chords Handbook
Corrections & Additions
Get Official Tab
Rancid tabs @ 911Tabs

Rancid - Rattlesnake

 

================================================================================================

 

Written by: Rancid

Bassist: Matt Freeman

Available on: Rancid (2000)

 

This song can be sore on the wrist 'cause there's alot of tremolo in the verse.

 

 

Intro

 

G|---|-----|---------|

D|---|-----|---------|

A|-7-|-7-7-|-7-3~-2~-|

E|---|-----|---------|

 

G|-----------(tremolo)x2------------|

D|----------------------------------|

A|-77777777777777777777777777777777-|

E|----------------------------------|

 

G|-------------------|

D|-------------------|

A|-33333333-22222222-|

E|-------------------|

 

 

Verse (All tremolo)

 

G|-------------------------------------|

D|-------------------------------------|

A|-00000000000000000-33333333-55555555-|

E|-------------------------------------|

 

G|---------------------------------------|

D|---------------------------------------|

A|-0000000000000000-333333333-5555-33-22-|

E|---------------------------------------|

 

 

Chorus

 

G|-----x3-------|

D|----------7-5-|

A|-00556677-----|

E|--------------|

 

G|----------55-77-55---------|

D|-00556677----------7-5-----|

A|-----------------------7-5-|

E|---------------------------|

 

 

Verse

 

Chorus

 

Verse

 

Chorus

 

Bridge

 

G|----------(tremolo)x4-------------|

D|----------------------------------|

A|-22222222222222222222222222222222-|

E|----------------------------------|

 

 

Chorus

 

Intro

 

I won't even try tabbing the ending (you'll hear why). It's just improv.

and you basically hit as many diffirent notes as possible in the minimum amount

of time.

 

Tabbed by Jerry

Comments, requests etc. to bassadilla@hotmail.com

 

 

Return to my to my Rancid tabs page

The Tablature is Copyright its respective owners.

Sign Up For My Newsletter
Subscribe | Unsubscribe

Site Map | Disclaimer | Privacy Policy | Media Kit | Submissions/Corrections

Website © 2000-2014 mattsmusicpage.com. All rights reserved.

Legal & DMCA: Matt's Music Page has been providing lyrics and tabs in a legal way, paying royalties each year to a few organizations. Then, all lyrics and tabs were removed from the site. Now, there's a new owner to the site, which purchased it August 26, 2014, and he is in negotiation to obtain licensing from BMI at the moment. If you have a specific DMCA request -- please do not hesitate to contact me via the contact button on top. I will do my very best to keep this site fully legal.

Get our toolbar!

 

1939 LYRIC THEATRE New York PHOTO
$5.83
1939 LYRIC THEATRE New York PHOTO picture


Star Spangled Banner or Marines Hymn lyrics signed by WWII Charles W. Lindberg
$10.0
Star Spangled Banner or Marines Hymn lyrics signed by WWII Charles W. Lindberg picture


OLD LARGE HISTORIC PHOTO OF THE LYRIC THEATRE, SYDNEY c1930s, WAR BONDS BOOTH
$7.42
OLD LARGE HISTORIC PHOTO OF THE LYRIC THEATRE, SYDNEY c1930s, WAR BONDS BOOTH picture


SONG OF REVOLUTION CARD SET WITH 13 MOST FAVORED COMMUNIST SONGS LYRICS + NOTES
$24.99
SONG OF REVOLUTION CARD SET WITH 13 MOST FAVORED COMMUNIST SONGS LYRICS + NOTES picture


OLD LARGE HISTORIC PHOTO OF THE LYRIC THEATRE, SYDNEY c1930s, WAR LOANS BOOTH
$7.42
OLD LARGE HISTORIC PHOTO OF THE LYRIC THEATRE, SYDNEY c1930s, WAR LOANS BOOTH picture