Your One-Stop Source For
Music Lyrics
Bass and Guitar Tabs
and More...
Music Lyrics Bass and Guitar Tabs

 

The Tabs Are Below

Learn To Read Tab
Chords Handbook
Corrections & Additions
Get Official Tab
Rancid tabs @ 911Tabs

BRAD LOGAN

 

 

C F

California sun has sunk

Am G C

Behind the Anaheim Hills, here comes the night

C F

I was high on junk

Am G C

And the warm winds of Santa Anna feel all right

 

C F

Will every ?crimmin' hood? make a bargain with the world

F C

?Seats are successive? when you're shot to the curb

C F

I spend my day in blindness, at night I get my vision

F C

Dodgy, cause there are no one indecision

 

F C

e|-----------------------------|---------------------------------|

B|-----------------------------|---------------------------------|

G|-----------------------------|---------------------------------|

D|-----------------------------|---------1--2--3--4-3-2----------|

A|--------------0--1--3--3-1-0-|-0-0-3--3------------------------|

E|-----------1-----------------|---------------------------------|

Cause it's wild When it's

 

Am G

e|-------------------------|-------------------------------------|

B|-------------------------|-------------------------------------|

G|--2--1--0----------------|-0-----------------------------------|

D|-----------4--3--2--1--0-|----4--3--2--1--0--------------------|

A|-------------------------|-------------------4--3--------------|

E|-------------------------|-------------------------------------|

Wild wild wild wild

 

 

(California sun has sunk...)

 

C F

I get ?destructive? outside obedience

F C

I am no longer respected in this new transition

C F

I put into effect, my long time standard

F C

Disastrous living, disastrous living!

 

 

(Cause it's wild...)

 

(California sun has sunk...)

 

 

Solo transcribed for guitar:

 

C F C

e|--------------------|--------------------|

B|--------------------|--------------------|

G|--------------------|--------------------|

D|--------------------|--------------------|

A|--------0h3-3-3-0---|-0-0-----0-0---0----|

E|--3-3-3-------------|-----3-3-----3---3--|

 

F C

e|---------------------|-------------------|

B|---------------------|-------------------|

G|---------------------|-------------------|

D|----1-1-1-1-0-1-0----|---------------0---|

A|------------------3--|--3--------0h3---3-|

E|--3------------------|-----3-3-3---------|

 

 

(Cause it's wild...)

 

(California sun has sunk...)

 

(California sun has sunk... (w/chef))

 

C (strike once)

All right!

 

 

:------------------------------------------------------:

|Corrections/additional transcriptions are welcome. |

|Send them to: 'punk.tabs@telia.com' |

:------------------------------------------------------:

|Transcribed by Derek Carlson and Andreas Karlsson |

|Solos transcribed by Andreas Idebrant |

:------------------------------------------------------:

 

 

Return to my to my Rancid tabs page

The Tablature is Copyright its respective owners.

Sign Up For My Newsletter
Subscribe | Unsubscribe

Site Map | Disclaimer | Privacy Policy | Media Kit | Submissions/Corrections

Website © 2000-2014 mattsmusicpage.com. All rights reserved.

Legal & DMCA: Matt's Music Page has been providing lyrics and tabs in a legal way, paying royalties each year to a few organizations. Then, all lyrics and tabs were removed from the site. Now, there's a new owner to the site, which purchased it August 26, 2014, and he is in negotiation to obtain licensing from BMI at the moment. If you have a specific DMCA request -- please do not hesitate to contact me via the contact button on top. I will do my very best to keep this site fully legal.

Get our toolbar!

 

Buckwerx Pinball Machine Audio Adapter headphone for Stern The Rolling Stones
$89.95
Buckwerx Pinball Machine Audio Adapter headphone for Stern The Rolling Stones picture


Zippo 2697, Rolling Stones-Tongue Logo, High Polish Chrome Finish Lighter
$19.95
Zippo 2697, Rolling Stones-Tongue Logo, High Polish Chrome Finish Lighter picture


Quaker Oats Premiums Never Opened Rock Poster Searies, Rolling Stones
$9.99
Quaker Oats Premiums Never Opened Rock Poster Searies, Rolling Stones picture


Rock Band The ROLLING STONES Tour Portrait POSTCARD Mick Jagger Keith Richards
$4.99
Rock Band The ROLLING STONES Tour Portrait POSTCARD Mick Jagger Keith Richards picture


1967 ROLLING STONES color group portrait period photo
$8.5
1967 ROLLING STONES color group portrait period photo picture